Pedro The Lion - I Am Always The One Who Calls Chords & Tabs

 

I Am Always The One Who Calls Chords & Tabs

Pedro The Lion Chords & Tabs

Version: 1 Type: Tab 0 ratings
1 star 2 stars 3 stars 4 stars 5 stars
comments

I Am Always The One Who Calls Tab

   
----------------------------------------------------------------------------
	     I Am Alway The One Who Calls - Pedro The Lion
----------------------------------------------------------------------------
Tabbed by:Ben Harris
Email:BHP007@aol.com

Tuning: standard

Note:  I alsmost never submit tabs but this is a great song and
I'm tired of seeing the same wrong tab for this song everywhere.
So, this is right or extremely close.

Intro
  
e|-----------------------------------------------------------------|
B|-----------------------------------------------------------------|
G|-----------------------------------------------------------------|
D|5-5-5-3-3-3-3-3-5-5-5-3-3-3-3-3-5-5-5-3-3-3-3-3-5-5-5-3-3-3-3-3--|
A|1-1-1-1-1-1-1-1-1-1-1-1-1-1-1-1-3-3-3-3-3-3-3-3-3-3-3-3-3-3-3-3--|
E|--------------------------------1-1-1-1-1-1-1-1-1-1-1-1-1-1-1-1--|

e|-----------------------------------------------------------------|
B|-----------------------------------------------------------------|
G|-----------------------------------------------------------------|
D|5-5-5-3-3-3-3-3-5-5-5-3-3-3-3-3----------------------------------|
A|1-1-1-1-1-1-1-1-1-1-1-1-1-1-1-1----------------------------------|
E|-----------------------------------------------------------------|

Verse 
(the verse basicly feels like it is in six.  the fisrt half of the verse 
 the guitar drops out and the bass plays F and D.  There is not a rhythm
 guitar part but if there were it would look like this):
  F5                      D5
e|--------------------------------------------------------------------|
B|--------------------------------------------------------------------|
G|--------------------------------------------------------------------| 
D|------------------------7-7-7-7-7-7-7-7-7-7-7-7---------------------| x4
A|3-3-3-3-3-3-3-3-3-3-3-3-5-5-5-5-5-5-5-5-5-5-5-5---------------------|
E|1-1-1-1-1-1-1-1-1-1-1-1---------------------------------------------|

Actual Guitar part 
(only over second half of verse and the rhythm is a bit odd,
 pretty much just syncapated, but listen for the timing)  
e|---------------------------------------------------------------|
B|---------------------------------------------------------------|
G|---------------------------------------------------------------|
D|---------------------------------------------------------------| x2
A|0-/-3-/-5-/-7-/8-\-7-\-5-\-3-----------------------------------|
E|---------------------------------------------------------------|
[ Tab from: http://www.guitartabs.cc/tabs/p/pedro_the_lion/i_am_always_the_one_who_calls_tab.html ]
Pre-Chorus
  Bb5             F5              C5                        A5
e|----------------------------------------------------------------|
B|----------------------------------------------------------------|
G|----------------------------------------------------------------|
D|3-3-3-3-3-3-3-3-----------------5-5-5-5-5-5-5-5-5-5-5-5-5-2-2-2-|
A|1-1-1-1-1-1-1-1-3-3-3-3-3-3-3-3-3-3-3-3-3-3-3-3-3-3-3-3-3-0-0-0-|
E|----------------1-1-1-1-1-1-1-1---------------------------------|
  pm.............................................................
e|-------------------------------------------------------------------|
B|-------------------------------------------------------------------|
G|-------------------------------------------------------------------| let
D|3-3-3-3-3-3-3-3-----------------5-5-5-5-5-5-5-5-5-5-5-5-5-5-5-5----| ring
A|1-1-1-1-1-1-1-1-3-3-3-3-3-3-3-3-3-3-3-3-3-3-3-3-3-3-3-3-3-3-3-3----|
E|----------------1-1-1-1-1-1-1-1------------------------------------|
  pm.............................................................

Chorus
  F               Bb              Dm              C
e|1-1-1-1-1-1-1-1--------------------------------------------------|
B|1-1-1-1-1-1-1-1-3-3-3-3-3-3-3-3-6-6-6-6-6-6-6-6-5-5-5-5-5-5-5-5--|
G|2-2-2-2-2-2-2-2-3-3-3-3-3-3-3-3-7-7-7-7-7-7-7-7-5-5-5-5-5-5-5-5--| x 2
D|3-3-3-3-3-3-3-3-3-3-3-3-3-3-3-3-7-7-7-7-7-7-7-7-5-5-5-5-5-5-5-5--|
A|3-3-3-3-3-3-3-3-1-1-1-1-1-1-1-1-5-5-5-5-5-5-5-5-3-3-3-3-3-3-3-3--|
E|1-1-1-1-1-1-1-1--------------------------------------------------|

Bridge
  C#              G#              C#              Bb
e|-----------------------------------------------------------------|
B|6-6-6-6-6-6-6-6-----------------6-6-6-6-6-6-6-6-3-3-3-3-3-3-3-3--|
G|6-6-6-6-6-6-6-6-5-5-5-5-5-5-5-5-6-6-6-6-6-6-6-6-3-3-3-3-3-3-3-3--|
D|6-6-6-6-6-6-6-6-6-6-6-6-6-6-6-6-6-6-6-6-6-6-6-6-3-3-3-3-3-3-3-3--|
A|4-4-4-4-4-4-4-4-6-6-6-6-6-6-6-6-4-4-4-4-4-4-4-4-1-1-1-1-1-1-1-1--|
E|----------------4-4-4-4-4-4-4-4----------------------------------|

Outro 
(on two guitars one just playes the chords for the chorus and the other
 plays a lead part but I'm just going to tab it for one guitar)

e|1-1-1-1-1-1-1-1----------------------------------------------------|
B|1-1-1-1-1-1-1-1-3-3-3-3-3-3-3-3------------------------------------|
G|2-2-2-2-2-2-2-2-3-3-3-3-3-3-3-3------------------------------------| x 2
D|3-3-3-3-3-3-3-3-3-3-3-3-3-3-3-3-3-3-3-5-5-5-7-7-7-5-5-5-5-5-5-5----|
A|3-3-3-3-3-3-3-3-1-1-1-1-1-1-1-1-5-5-5-5-5-5-5-5-5-3-3-3-3-3-3-3----|
E|1-1-1-1-1-1-1-1----------------------------------------------------|


e|3-3-3-3-3-3-3-3-6-----|
B|3-3-3-3-3-3-3-3-6-----|
G|3-3-3-3-3-3-3-3-7-----|
D|5-5-5-5-5-5-5-5-8-----|
A|5-5-5-5-5-5-5-5-8-----|
E|3-3-3-3-3-3-3-3-6-----|

Structure:
Intro
Verse
Pre-Chorus
Chorus
Intro
Verse
Pre-Chorus
Chorus
Bridge
Outro

| /  slide up
| \  slide down
| h  hammer-on
| p  pull-off
| ~  vibrato
| +  harmonic
| x  Mute note
============================================================================
Comments