Pedro The Lion - Bad Diary Days Chords & Tabs

 

Bad Diary Days Chords & Tabs

Pedro The Lion Chords & Tabs

Version: 3 Type: Tab 0 ratings
1 star 2 stars 3 stars 4 stars 5 stars
comments

Bad Diary Days Tab

tabbed by jonathan a.
aim: endersgame15


Intro/Verse

barley ever fight.... (listen for changes in rythum)
e---------------------------------------------|
b---------------------------------------------|
g---------------------------------------------|
d-5--4--7--444444-22-444444-22-444-55555-7777-|
a---------------------------------------------|
e---------------------------------------------|

e------------------------------------------|
b------------------------------------------|
g------------------------------------------|
d-------444444-22-444444-22-444-55555-7777-|
a------------------------------------------|
e------------------------------------------|
[ Tab from: http://www.guitartabs.cc/tabs/p/pedro_the_lion/bad_diary_days_tab_ver_3.html ]
e------------------------------------------|
b------------------------------------------|
g------------------------------------------|
d-------444444-22-444444-22-444-55555-7777-|
a------------------------------------------|
e------------------------------------------|

after verse1 ends it goes into this
e------------------------------------------|
b------------------------------------------|
g------------------------------------------|
d------------------------------------------|
a-------5-7-9-7-5-4-2----------------------|
e------------------------------------------|

after verse 2 ends it goes into this
(listen for rythum)
e------------------------------------------|
b------------------------------------------|
g-------7--9--11--9--7--6--4---------------|
d-------7--9--11--9--7--6--4---------------|
a-------5--7--9---7--5--4--2---------------|
e------------------------------------------|


the acoustic part thats really low for the other verse is easy just
play around with the chords from the chorus and intro

It is a really fun song to play so go play it now!
Comments