Pedro The Lion - Bad Diary Days Chords & Tabs

 

Bad Diary Days Chords & Tabs

Pedro The Lion Chords & Tabs

Version: 1 Type: Tab 0 ratings
1 star 2 stars 3 stars 4 stars 5 stars
comments

Bad Diary Days Tab

   
Pedro The Lion- “Bad Diary Days”

This is a really easy song, listen to the song and you can
Easily figure out which order these riffs go in

Intro:
G-------------2----------------------------------------------------------------------
D-5-----4-----2-----4-4-4-4-4-4-2-2--4-4-4-4-4-4-2-2--4-4-4-5-5-5-7-7-7
A-5-----4-----0---------------------------------------------------------------------
E-3-----2--------------------------------------------------------------------------
[ Tab from: http://www.guitartabs.cc/tabs/p/pedro_the_lion/bad_diary_days_tab.html ]
D--4-4-4-4-4-4-2-2-4-4-4-4-4-4-2-2-4-4-4-2-2-2-0-0-0-------------------


Verse and Main Riff
D-4-4-4-4-4-4-2-2-4-4-4-4-4-4-2-2-4-4-4-5-5-5-7-7-7

Chorus and Outro (Picked Notes)
D-0------2-------4--------2-------0----------------------------------
A------------------------------------------4-----2---------0---


Chorus and Outro (Power Chords

G--7-----9-------11-------9-------7--------6------4---------2-----------------
D--7-----9-------11-------9-------7--------6------4---------2-----------------
A--5-----7-------9--------7-------5--------4------2---------0---------------
Comments