Pedro The Lion - A Mind Of Her Own Chords & Tabs

 

A Mind Of Her Own Chords & Tabs

Pedro The Lion Chords & Tabs

Version: 1 Type: Tab 0 ratings
1 star 2 stars 3 stars 4 stars 5 stars
comments

A Mind Of Her Own Tab

e-----|----|----|----|----|----|-----
B-----|----|----|----|----|----|-----
G-----|----|----|----|----|----|-----
D---5-|--7-|--3-|--0-|----|----|-----
A---3-|--5-|--1-|--1-|--6-|--8-|--9--
E-----|----|----|----|--4-|--6-|--7--
      |    |    |    |    |    |    
|> 14 | 4  | 14 | 4  | 14 | 8  |  8
|
|   
These are how many times to strum down!


sounds good if you play it this way too:

G--5--7--3--0----------
D--5--7--3--0--6--8--9-
D--3--5--1--1--6--8--9-
E--------------4--6--7-


They just pick the string in through the first verses:

D--3--5--1--3-----------
A--------------4--6--7--


I think this is most of the song.
E-mail me if ya like PEDRO THE LION!!!
ickabod17@yahoo.com

[ Tab from: http://www.guitartabs.cc/tabs/p/pedro_the_lion/a_mind_of_her_own_tab.html ]
Comments