Pedicab - Dito Tayo Sa Dilim Chords & Tabs

 

Dito Tayo Sa Dilim Chords & Tabs

Pedicab Chords & Tabs

Version: 1 Type: Tab

Dito Tayo Sa Dilim Tab

   
------------------------------------------------------
	Dito tayo sa dilim - Pedicab
------------------------------------------------------
Tabbed by: John P.
Email: johnpinto04@yahoo.com

Tuning: EADGBe (standard)

Intro/Verse

e|-----------------|
B|-----------------|
G|---9--9--9--9----|
D|-----------------|
A|-----------------|
E|-----------------|

Riff 1 "papaparap, parararap"

e|-------------------------------------|
B|-------------------------------------|
G|--12--12--12--12--------11--11--11---|
D|--12--12--12--12--------11--11--11---|
A|--10--10--10--10--------9---9---9----|
E|-------------------------------------|
[ Tab from: http://www.guitartabs.cc/tabs/p/pedicab/dito_tayo_sa_dilim_tab.html ]
Riff 2 "Diretsahan na" 
(feels awkward, but this is how it's played)
*listen to cd for timing
e|----------------------------------------|
B|----------------------------------------|
G|----------------------------------------|
D|---9--9--9--9------14-14-14---17--19----|
A|---7--7--7--7------12-12-12---15--17----|
E|----------------------------------------|

Adlib
*while bass is doing adlib

(with flanger effect)
e|--------------------|
B|--------------------|
G|---9----------------|
D|---9----------------|
A|---7----------------|
E|--------------------|

Riff 3

e|--------------------|
B|--12--12--12--12----|
G|--------------------|
D|--------------------|
A|--------------------|
E|--------------------|

Outro

e|--------------------|
B|--------------------|
G|--9-9-----9---------|
D|--9-9-----9---------|
A|--7-7-----7---------|
E|--------------------|

Song Structure

Intro
Verse
Riff 1
Riff 2
Verse
Riff 1
Adlib
Riff 3
Riff 2
Riff 1
Outro

~end~



comments? email me @ johnpinto04@yahoo.com
hi nitrate. \m/



| /  slide up
| \  slide down
| h  hammer-on
| p  pull-off
| ~  vibrato
| +  harmonic
| x  Mute note
===============================================================================