Pedicab - Dito Tayo Sa Dilim Chords & Tabs

 

Dito Tayo Sa Dilim Chords & Tabs

Pedicab Chords & Tabs

Version: 1 Type: Bass Tab

Dito Tayo Sa Dilim Bass Tab

G|----------------------------------|
D|----------------------------------|
A|-----------------3--3—5-----------|
E|-0-0-3-0-3-5-5-5--5---------------|

Intro, Verses, and “Diretsahan na…”

G|----------------------------------|
D|----------------------------------|
A|---------------------—------------|
E|-3-3-5-3-2-2-2-2-3-2--------------|

Papaparap papaparararap…


[ Tab from: http://www.guitartabs.cc/tabs/p/pedicab/dito_tayo_sa_dilim_btab.html ]
G|----------------------------------|
D|----------------------------------|
A|-0-3-2-5-0-0-3-2-3---—------------|
E|----------------------------------|

Adlib

G|----------------------------------|
D|----------------------------------|
A|----------------------10----10-12-|
E|-7-7-10-7-10-12-12-12----12-—-----|

Comments? Suggestions? Email me at gulaman_baby03@yahoo.com
Tabbed by: Camille S.