Pearl Jam - Yellow Ledbetter Chords & Tabs

 

Yellow Ledbetter Chords & Tabs

Pearl Jam Chords & Tabs

Version: 4 Type: Tab 0 ratings
1 star 2 stars 3 stars 4 stars 5 stars
comments

Yellow Ledbetter Tab

   
Key:
H= hammer-on
~= let ring
^= bend
<<<< = tremolo bar
s= slide

e----------------7-----------------/-------------------------------|
B-------5~---5------7^--7--7h5--7~-/-------------------------------|
G--4h6-----------------------------/-11--9------------9------9h11^-|
D----------------------------------/-------11--9--11-----11--------|
A----------------------------------/-------------------------------|
E----------------------------------/-------------------------------|

e-----------------/---------------------------------------------------|
B-----------------/--12^(full release)--14--12------------------------|
G-----------------/-----------------------------13--11--9------11<<<<-|
D--2-----2-----4^-/----------------------------------------11---------|
A-----4-----4-----/---------------------------------------------------|
E-----------------/---------------------------------------------------|

e-----------------/---------------------14--12-------12h14~------|
B-----------------/------12------12h14^----------14--------------|
G--11^--11--9-----/--11------13----------------------------------|
D--------------11-/----------------------------------------------|
A-----------------/----------------------------------------------|
E-----------------/----------------------------------------------|
[ Tab from: http://www.guitartabs.cc/tabs/p/pearl_jam/yellow_ledbetter_tab_ver_4.html ]
This is the crunchy part- PRESS TREMOLO BAR DOWN FROM NOW UNTIL
THE LAST PART OF SOLO.

e-------------12~-/--12---------------------------------------------|
B------12h14-----/-------14--12-------------------------------------|
G--13------------/---------------13--11--9------9h11--9------9h11-9-|
D----------------/--------------------------11-----------11---------|
A----------------/--------------------------------------------------|
E----------------/--------------------------------------------------|

e-------------------/------------------------------|
B-------------------/------------------------------|
G--11^--11h9------9-/------9h11--9------9h11-------|
D-------------11----/--11-----------11-------------|
A-------------------/------------------------------|
E-------------------/------------------------------|

Stop using tremolo now

e------------------------------------------------------------------|
B--14~--12h14--12h14--12h14--12h14--12h14--12h14(let fade)--14s1---|
G------------------------------------------------------------------|
D------------------------------------------------------------------|
A------------------------------------------------------------------|
E------------------------------------------------------------------|

I WANT TO KNOW WHAT YOU THINK OF THIS TAB!!!! Please send any
questions or comments (please send comments) to Yoman180@cs.com!!
Comments