Pearl Jam - Wishlist Chords & Tabs

 

Wishlist Chords & Tabs

Pearl Jam Chords & Tabs

Version: 1 Type: Bass Tab 0 ratings
1 star 2 stars 3 stars 4 stars 5 stars
comments

Wishlist Bass Tab

   
PEARL JAM "WISHLIST" -BASS TAB
--------------------
I saw lettermans feature on pearl jam where they
preformed this live and thought it would be an
awesome song to play. So i tabbed it.
Tune normaly  eadg

Intro and first verse: 
|---------------|
|---------------|
|---------------|
|-8-------------|
  1& 2 & 3 & 4 &

Jeff plays a C on the beginning of each bar and every 
fourth time play an extra C 1/2 a beat before the bar
|---------------|-----------|
|---------------|-----------|
|---------------|-----------|
|-8------------8|8----------|
  1& 2 & 3 & 4 & 1 &
            (every fourth time)

This is repeated up until the chorus
Chorus:
|-|---------------|--------------------|
|-|---------------|--------------------|
|-|-8-8/10\8------|-------8/10/12-10---|
|8|----------10-8-|-10/12------------8-|
 & 
|---------------|---------------|
|---------------|---------------|
|-8-8/10\8------|---------------|
|----------10-8-|-8-5-3-1-1-1-1-|

|-----------------|
|-----------------|
|-----------------|
|-1-1-1-1-1-1-1-1-|
[ Tab from: http://www.guitartabs.cc/tabs/p/pearl_jam/wishlist_btab.html ]
Verse 2: (same As first verse)
Chorus: same riff repeated But F at the end is held for 
two bars
|-----------------|
|-----------------|
|-----------------|
|-1-1-1-1-1-1-1-1-|  x2

Interlude:
This is the basic G F C progression that jeff plays slightly
different each time
|---------------------------------|
|---------------------------------|
|-----------------3-3-3-3-0-2-3---|
|-3-3-3-3-1-1-1-1---------------3-|
  G       F       C

|-----------------------------------|
|-------------------------------2---|
|-----------------3-3-3-3-0-2-3-----|
|-3-3-3-3-1-1-1-1-----------------3-|
  G       F       C

|-----------------|   
|-----------------|  
|-----------------|  
|-3-3-3-3-1-1-1-1-|  F is held a while
  G       F       

The final chorus is the same as the second
and during the guitar solo the verse is played.

 h = hammeron
 p = pulloff
 ~ = vibrato
 / = slide up
 \ = slide down
(X)= hold note (let ring)

Tabbed by Mark Linwood

Hint suggesstions or comments to (Rlinwood@powerup.com.au)
I will reply to all emails
Comments