Pearl Jam - Why Go Chords & Tabs

 

Why Go Chords & Tabs

Pearl Jam Chords & Tabs

Version: 2 Type: Bass Tab 0 ratings
1 star 2 stars 3 stars 4 stars 5 stars
comments

Why Go Bass Tab

   
#----------------------------------PLEASE NOTE---------------------------------#
#This file is the author's own work and represents their interpretation of the #
#song. You may only use this file for private study, scholarship, or research. #
#------------------------------------------------------------------------------##
From: PePPeRs0o@aol.com
Date: Sun, 19 Nov 1995 13:44:04 -0500
Subject: Why Go by Pearl Jam

===================
Why Go
from the album Ten
by PePPeRs 0o@aol.com
===================


  intro    NC (E7)                                       
|--------|---------------------------------------------
|--------|---------------------------------------------
|--------|----------------------------------5h7-----
|--5h7-|-0----0-5h7-0---0-0-5h7-------------

  verse                                
||------------------|--------------------||
||*-----------------|-------------------*||
||*------------------|-------------5---*||
||-0--0-5h7-0---|0---0-5h7-------||
[ Tab from: http://www.guitartabs.cc/tabs/p/pearl_jam/why_go_btab_ver_2.html ]
pre chorus
------------------------------------
------------------------------------
----7--7--7--------7-7----------
--0--0--0--0-7-0------0-0----

Em   Chorus     Bm       G      D
-------------------|-----------------------------------
-------------------|-----------------------------------
-7-7-------------|---------5---5-5-5---5h6------
------7---7-7-7\|--3----3-------------------------

Guitar Solo
------------------------------|---------------------------------------
------------------------------|---------------------------------------
-7---7-7--------------------|---------5--5-5-5--5-5-5-7-7-0--
-0---0-0-3---3-3-3-3-0--|-5h6h7-----------------------------


----------------------------------|---------------------------------------
----------------------------------|---------------------------------------
-7-7-7-7-----------------------|------------------------------7-7----
----------3-3-3-3---3-3-0-0-|-5---5-5-------5-5---5-5------0---
if anyone knows the intro Ament plays live 
let me know.
PePPeRs 0o@aol.com


Comments