Pearl Jam - U Chords & Tabs

 

U Chords & Tabs

Pearl Jam Chords & Tabs

Version: 1 Type: Bass Tab 0 ratings
1 star 2 stars 3 stars 4 stars 5 stars
comments

U Bass Tab

   
U
Pearl Jam
Tabbed by Nick Key (nkey@ionet.net)

Drop D  D a D g

Intro: 
 3x
|--------------------------|
|---11---11-11-10-10-10-10-|
|--------------------------|
|-7----7-------------------|

fourth time
|-----------------------------|
|---11---11-11---11---11-11---|
|-----------------------------|
|-7----7-------7----7---------|

Verse

This is the basic d e a d progression that jeff plays slightly
different each time
 fig. 1
|---------------------------------|
|---------------------------------|
|-5-5-5-5-5-5-5-5-7-7-7-7-7-7-7-7-|
|---------------------------------|
 fig. 2
|-----------------------------------|
|-----------------------------------|
|-----------------5-5-5-5-5-5-5-5-5-|
|-7-7-7-7-7-7-7-7-------------------|

Play fig. 1

|-----------------------------------|
|-----------------------------------|
|-----------------------------------|
|-7-7-7-7-7-7-7-7-7-7-7-7-7-7-7-7---|

|-----------------------------------|
|-----------------------------------|
|-----------------------------------|
|-5-5-5-5-5-5-5-5--7-7-7-7-7-7-7-7--|



[ Tab from: http://www.guitartabs.cc/tabs/p/pearl_jam/u_btab.html ]
|-----------------------------------|
|-----------------------------------|
|-----------------------------------|
|-0-0-0-0-0-0-0-0--2-2-2-2-2-2-2-2--|

Play fig. 2

Chorus
2x
|-------------------------------------|
|-------------------------------------|
|-55555555-77777777-------------------|
|-------------------00000000-55555555-|

Play the whole thing again

Then this:

|-----------------------------------------------|
|-----------------------------7-7-7-7-7-5---5---|
|-5--7--5---------------------------------7-----|
|----------7--7-7-7-7-7-7-7-7-------------------|

Play fig. 2

Then chorus 1x

Second time play:

|---------------------------------------------|
|---------------------------------------------|
|-55555555-77777777------------4-5-7-4-7-4----|
|-------------------00000000-7-------------7--|

Play chorus again, then

fourth time play:

|---------------------------------------------|
|---------------------------------------------|
|-55555555-77777777------------4--4-4-3-3-3-3-|
|-------------------00000000-7--7-------------|

                
Play outro till end:

|-------------------| 
|-------------------|  
|---4---4-4-3-3-3-3-|  
|-7---7-------------|

End on C# or A  
Comments