Pearl Jam - The End Chords & Tabs

 

The End Chords & Tabs

Pearl Jam Chords & Tabs

Version: 3 Type: Tab 0 ratings
1 star 2 stars 3 stars 4 stars 5 stars
comments

The End Tab

Intro

eb|---------|---------|---------|---------|
Bb|---------|---------|---------|---------|
Gb|---------|---------|---------|---------|
Db|-5---5---|-5---5---|-5---5---|-5---5---|
Ab|---5---5-|---5---5-|---5---5-|---5---5-|
Eb|-3-------|-3-------|-3-------|-3-------|


Verse                   

eb|---------|---------|---------|---------|---------|---------|---------|---------|
Bb|---------|-3---3---|---------|---------|---------|---------|---------|---------|
Gb|-4---4---|---------|---------|---------|---------|---------|---------|---------|   2
Db|---5---5-|---5---5-|-7---7---|-5---5---|-5---5---|-5---5---|-5---5---|-5---5---|
Ab|---------|---------|---5---5-|---5---5-|---7---7-|---7---7-|---5---5-|---5---5-|
Eb|-3-------|-3-------|-3-------|-3-------|-3-------|-3-------|-3-------|-3-------|


         
eb|---------|---------|---------|---------|
Bb|---------|---------|---------|---------|
Gb|---------|---------|---------|---------|
Db|-5---5---|-5---5---|-5---5---|-5---5---|
Ab|---7---7-|---7---7-|---5---5-|---5---5-|
Eb|-3-------|-3-------|-3-------|-3-------|


Repeat this part two times per verse.

Chorus
[ Tab from: http://www.guitartabs.cc/tabs/p/pearl_jam/the_end_tab_ver_3.html ]
eb|---------|---------|---------|---------|---------|---------|---------|---------|
Bb|---------|---------|---------|---------|-5---5---|-5---3---|-2---2---|-2---2---|
Gb|-4---4---|-5---5---|-7---7---|-7---7---|---0---0-|---0---0-|---0---0-|---0---0-|   
Db|---5---5-|---5---5-|---5---5-|---5---5-|---------|---------|---------|---------|
Ab|---------|---------|---------|---------|-3-------|-3---2---|-0-------|---------|
Eb|-3-------|-0-------|-7-------|---------|---------|---------|---------|---------|

  
eb|---------|---------|---------|---------|---------|---------|---------|---------|
Bb|-5---5---|-5---7---|-8---8---|-8---10--|-7---7---|-7---8---|-5---5---|-5---5---|
Gb|---0---0-|---0---0-|---0---0-|---0---0-|---0---0-|---0---0-|---0---0-|---0---0-|   
Db|---------|---------|---------|---------|---------|---------|---------|---------|
Ab|-3-------|-3---5---|-7-------|-7---7---|-5-------|-5-------|-3-------|-0-------|
Eb|---------|---------|---------|---------|---------|---------|---------|---------|

  
eb|---------|---------|---------|---------|---------|---------|
Bb|-5---5---|-5---5---|-5---5---|-5---5---|-5---5---|-3-------|
Gb|---0---0-|---0---0-|---0---0-|---0---0-|---0---0-|---0-5---|  
Db|---------|---------|---------|---------|---------|-------5-|
Ab|-3-------|-0-------|-3-------|-0-------|-3-------|-3---3---|
Eb|---------|---------|---------|---------|---------|---------|
  

To play this song, you have to play the parts in this order: 

Intro, Verse 2, Chorus, Intro, Verse 2, Chorus.
Comments