Pearl Jam - State Of Love And Trust Chords & Tabs

 

State Of Love And Trust Chords & Tabs

Pearl Jam Chords & Tabs

Version: 1 Type: Tab 0 ratings
1 star 2 stars 3 stars 4 stars 5 stars
comments

State Of Love And Trust Tab

   
BRYAN.STEELE@ASU.Edu
[ Tab from: http://www.guitartabs.cc/tabs/p/pearl_jam/state_of_love_and_trust_tab.html ]
State Of Love And Trust - Recorded by Pearl 
Jam                                                                               
 
Transcribed by Bryan Steele - Sept 23, 1994
 
Send any questions or comments to: bsteele@asu.edu
 
 
 
E-|---------------------------------------------------------------------------|
B-|--10----10---r---r---r----5--5--5------------------------------------------|
G-|--10----10---a---a---a----5--5--5------------------------------------------|
D-|--10----10---k---k---k----7--7--7---7--7-----------------------------------|
A-|--8-----8----e---e---e----7--7--7---7--7-----------------------------------|
E-|--------------------------5--5--5---5--5-----------------------------------|
                                                                               
Start out in F - get the rake rhythm down - then move to A 
 
 
E-|--------------------------------------|------------------------------------|
B-|--------------------------------------|------------------------------------|
G-|------------10----10--------7/\-7-5---|-------10----10-------7/\5--7--5----|
D-|--------10-----10----10-10----------7-|----10----10----10-10---------------|
A-|--8--8--------------------------------|--8---------------------------------|
E-|--------------------------------------|------------------------------------|
      State of love and trust is a 
...                                                                               
 
This is where the lyrics start.  Mike plays this part while Stone sits back
and jams the F to A pattern.  Don't take this part of the tab to heart.  This
is where you should do some improvisation and a little jamming of your own.
If you listen to this live, you'll get the picture.
 
E-|----------------------------|----------------------------------------------|
B-|--10-r-10-r-10-----5-5------|--10--10-r--r--r--5--5--5--5-5---------r-r-r--|
G-|--10-a-10-a-10-----5-5------|--10--10-a--a--a--5--5--5--5-5---5-5-5-a-a-a--|
D-|--10-k-10-k-10-----7-7--7---|--10--10-k--k--k--7--7--7--7-7---5-5-5-k-k-k--|
A-|--8--e-8--e-8------7-7--7---|--8---8--e--e--e--7--7--7--7-7---3-3-3-e-e-e--|
E-|-------------------5-5--5---|------------------5--5--5--5-5----------------|
 Smell that on my hands-ands...              And I listen          for 
the 
                                                                               
Here is the chord pattern for the chorus:  F A C G A B C D
 
 
E-|---------------------------------------------------------------------------|
B-|-----------------r-r-r-----------------------------------------------------|
G-|-------------2-2-a-a-a--4-4-4-4-4--5-5-5-5-5--7-7-7-7-7--------------------|
D-|--5-5-5-5-5--2-2-k-k-k--4-4-4-4-4--5-5-5-5-5--7-7-7-7-7--------------------|
A-|--5-5-5-5-5--0-0-e-e-e--2-2-2-2-2--3-3-3-3-3--5-5-5-5-5--------------------|
E-|--3-3-3-3-3----------------------------------------------------------------|
 voice inside my head - nothing - I'll do this one myself
 
Then there is a small variagion to the chorus.  The following tab will 
show 
the change in the chords directly above.  The second variation of the 
chorus 
is as follows:  F A C G A G F D
 
E-|---------------------------------------------------------------------------|
B-|-----------------r-r-r-----------------------------------------------------|
G-|-------------2-2-a-a-a--------------------------7-7-7-7--------------------|
D-|--5-5-5-5-5--2-2-k-k-k--5-5-5-5-5-5-5--3-3-3-3--7-7-7-7--------------------|
A-|--5-5-5-5-5--0-0-e-e-e--5-5-5-5-5-5-5--3-3-3-3--5-5-5-5--------------------|
E-|--3-3-3-3-3-------------3-3-3-3-3-3-3--1-1-1-1-----------------------------|
 from both sides of ....
 
There is the variation of the chorus.  Simple.
 
The tab below is just a little throw in I thought might help.  This is this
simple little solo Mike plays after Eddie screams-- 
 
Myself!  Myself!          YEAH!  YEAH!
 
E-|--------------------------------------------|------------------------------|
B-|--------------------------------------------|------------------------------|
G-|--12h-14-14-14-14-12------------------------|------------------------------|
D-|---------------------14-14--14--14-12-------|------------------------------|
A-|--------------------------------------15-12-|-15-15-15-14-15-14------------|
E-|--------------------------------------------|------------------------------|
                                                                               
                                                 This part is the variation
                                                 that Mike throws in.
 
Good luck!  Send me questions or comments about this tab or any other Pearl
Jam song you would like to learn how to play.
 
Bryan Steele  - bsteele@asu.edu
Comments