Pearl Jam - State Of Love And Trust Chords & Tabs

 

State Of Love And Trust Chords & Tabs

Pearl Jam Chords & Tabs

Version: 1 Type: Bass Tab 0 ratings
1 star 2 stars 3 stars 4 stars 5 stars
comments

State Of Love And Trust Bass Tab

   
----------------------
State of love and trust
-----------------------
 
fig 1
 
A|---------------------|
E|-1-1-1-1-(/)-5-5-5-5-|
 
fig 2
 
A|---------------------|
E|-1/5-(2)(2)(3)-3/5~--|
 
fig 3 
 
A|-8-8-8-8----------------------------------2-2-2-2-3-3-3-3-5-5-5-5-|
E|---------5-5-5-55-8-8-8-8-3-3-3-3-5-5-5-5-------------------------|
 
fig 4
 
A|-8-8-8-8----------3-3-3-3---------------------------------5-5-5-5-|
E|---------5-5-5-55---------3-3-3-3-5-5-5-5-3-3-3-3-1-1-1-1---------|
 
fig 5
 
A|-8-8-8-8----------|
E|---------5-5-5-55-|
 
the structure is
fig 1 * 4
fig 2 * 8
fig 3 * 1
fig 2 * 8 slight change but structure is the same
fig 3 * 1
fig 4 * 1
fig 2 * 4 Solo bass
fig 5 * 4
fig 3 then fig 4 then fig 3 then fig 4
fig 3 not sure how many times but differs
 
key
() ghost note or mute
/ slide 
~ make it ring

			"Pearl Jam Traders Page"
		    http://www.usyd.edu.au/~mgallagh
		       mgallagh@extro.ucc.su.oz.au


[ Tab from: http://www.guitartabs.cc/tabs/p/pearl_jam/state_of_love_and_trust_btab.html ]
Comments