Pearl Jam - Soon Forget Chords & Tabs

 

Soon Forget Chords & Tabs

Pearl Jam Chords & Tabs

Version: 2 Type: Tab 0 ratings
1 star 2 stars 3 stars 4 stars 5 stars
comments

Soon Forget Tab

   
Tabs: #----------------------------------PLEASE 
NOTE---------------------------------#
#This file is the author's own work and represents their interpretation 
of the #
#song. You may only use this file for private study, scholarship, or 
research. #
#------------------------------------------------------------------------------#

Date:000626 (21:19)
Tab Name: Soon Forget
By: Pearl Jam
Album: Binaural
Tabbed by: Federico Villa
E-m@il: Force@vitalogy.org


Comments: Well...what can I say, I can just say that this is my first 
tab complete I put online. When I heard this great song from the first 
time when I bought the cd, I felt that I must tab this one, but as u can 
see I canīt hear some hidden chords that appears somewhere in the song. 
So if I had tabbed wrong somehow, send any comment or corrections @ my 
e-mail.

					Good Luck with the tab!
		
				        /Federico Villa


Firse Verse + Chorus


   "Sorry is the fool who trade his love for a corvette"

Eb-6--------------------------------3------------------|
Bb-6--------------------------------4------------------|
Gb-7--------------------------------5------------------|     

   "Thinks heīll get the girl, heīll only get the mechanic"

Eb--6--------------------------------------5--------------|
Bb--5--------------------------------------3--------------|
Gb--5--------------------------------------5--------------|

   "Whatīs missing? heīs living a day heīll soon forget"

Eb---3---------------------3------2-------------------(1)---|
Bb---4---------------------4------4-------------------(3)---|
Gb---5---------------------5------3-------------------(3)---|
[ Tab from: http://www.guitartabs.cc/tabs/p/pearl_jam/soon_forget_tab_ver_2.html ]
   "Thatīs one more time around, the sun is going down"

Eb---------3--------------------5----------------------|
Bb---------4--------------------4----------------------|
Gb---------5--------------------5----------------------|

   "The moon is out, but heīs drunk and shouting...puttin people down"

Eb--5----------------------------------------------3----------------5-|
Bb--7----------------------------------------------3----------------3-|
Gb--7----------------------------------------------2----------------5-|

   "Heīs pissing, heīs living, a day heīll soon forget"

Eb-------3-------------5-------------------------------6--6--6--6--6-|
Bb-------4-------------4-------------------------------6/-8-/6-/8-/6-|
Gb-------5-------------5-------------------------------7--7--7--7--7-|


Bridge:


   "Counts   his   money   every   morning,"
   "The only thing  that  keeps  him  horny"
   "Locked in a giant house, thatīs alarming"

Eb-5----------------------------------------6--6--6--6--6-|
Bb-4----------------------------------------6/-8-/6-/8-/6-|
Gb-5----------------------------------------7/-7--7--7--7-|

   "The townsfolk, they all laugh"

Eb------2------------------------(1)---|
Bb------4------------------------(3)---|
Gb------3------------------------(3)---|


Then repeat the same chords above and continue with this:

Verse 2:

"Sorry is the fool who trades his love for hi-rise rent,
 Seems the more u make equals the loneliness u get,
 And itīs fitting, he barely living, a day heīll soon forget"

"Thatīs one more time around, and there is not a sound,
 Heīs lying dead, clutching Benjamins, never put the money down,
 Heīs stiffening, Weīre all whistling,
 A man weīll soon forget."


Comments