Pearl Jam - Sonic Reducer Chords & Tabs

 

Sonic Reducer Chords & Tabs

Pearl Jam Chords & Tabs

Version: 2 Type: Tab 0 ratings
1 star 2 stars 3 stars 4 stars 5 stars
comments

Sonic Reducer Tab

i believe sonic reducer goes alittle somthin like this...

(main rif)
-----------------------------------------------------------------|
-----------------------------------------------------------------|
6-6-6-6-6-6-6-6--------------------------------------------------|
6-6-6-6-6-6-6-6-6-6-6-6-6-6-6-6-7-7-7-7-7-7-7-7-4-4-4-4-4-4-4-4--|
4-4-4-4-4-4-4-4-6-6-6-6-6-6-6-6-7-7-7-7-7-7-7-7-4-4-4-4-4-4-4-4--|
----------------4-4-4-4-4-4-4-4-5-5-5-5-5-5-5-5-2-2-2-2-2-2-2-2--|
(not sure how many times to repeat)

(rif leading into chorus...)
[ Tab from: http://www.guitartabs.cc/tabs/p/pearl_jam/sonic_reducer_tab_ver_2.html ]
------------------------------------|
------------------------------------|
------------------------------------|
2-2-2-2-2-2-4-4-4/7-7-7-7-7-7-9-9---|
2-2-2-2-2-2-4-4-4/7-7-7-7-7-7-9-9---|
0-0-0-0-0-0-2-2-2/5-5-5-5-5-5-7-7---|

(chorus...)
------------------------------------------------|
------------------------------------------------|
------------------------------------------------|
9/11-11-11-11/9/11-11-11-11/7-7-7-7/9-9-9-9-9-9-|
9/11-11-11-11/9/11-11-11-11/7-7-7-7/9-9-9-9-9-9-|
7/9--9--9--9-/7/9--9--9--9-/5-5-5-5/7-7-7-7-7-7-|

wish i knew solo...
/=slide up or down
Comments