Pearl Jam - Sometimes Chords & Tabs

 

Sometimes Chords & Tabs

Pearl Jam Chords & Tabs

Version: 2 Type: Tab 0 ratings
1 star 2 stars 3 stars 4 stars 5 stars
comments

Sometimes Tab

#----------------------------------PLEASE NOTE--------------------------------#
#This file is the author's own work and represents their interpretation of the#
#song. You may only use this file for private study, scholarship, or research.#
#-----------------------------------------------------------------------------#
#-- File created with Instab - http://www.pconline.com/~smcarey/instab.html --#
#-----------------------------------------------------------------------------#

Author/Artist: Pearl Jam
Title: Sometimes
Album: No Code
Transcribed by: Rick S.
Email: ricksloukji@hotmail.com

Beautiful opener.

------------------------------------------------------------------------------
------------------------------------------------------------------------------
----5----5---5-----5-------5--------------------------------------------------
--00--00---0---6-6---6-7-7---7------------------------------------------------
------------------------------------------------------------------------------
------------------------------------------------------------------------------
 palm muted intro, verses                                                     

------------------17----------------------------------------------------------
------------------------------------------------------------------------------
-9-9-10-11--------------------------------------------------------------------
------------------------------------------------------------------------------
------------------------------------------------------------------------------
------------------------------------------------------------------------------
 fill through verses                                                          
[ Tab from: http://www.guitartabs.cc/tabs/p/pearl_jam/sometimes_tab_ver_2.html ]
------------------------------------------------------------------------------
------------------------------------------------------------------------------
------------------------------------------------------------------------------
------------------------------------------------------------------------------
-----3-----3---3-----3-------3------------------------------------------------
-1-1---1-1---1---0-0---0-1-1---1----------------------------------------------
 chorus                                                                       

------------------------------------------------------------------------------
------------------------------------------------------------------------------
------------------------------------------------------------------------------
-33333333-44444444------------------------------------------------------------
-11111111-22222222------------------------------------------------------------
------------------------------------------------------------------------------
                                                                              

------------------------------------------------------------------------------
------------------------------------------------------------------------------
------------------------------------------------------------------------------
------------------------------------------------------------------------------
------------------------------------------------------------------------------
-8-8-8-8-8-8-8-8-5-5-5-5-5-5-5-5-6-6-6-6-6-6-6-6-7-7-7-7-7-7-7-7--------------
                                                                              

------------------------------------------------------------------------------
------------------------------------------------------------------------------
------------------------------------------------------------------------------
-----3-----3---3-----3-----3---3----------------------------------------------
------------------------------------------------------------------------------
-1-1---1-1---1---1-1---1-1---1------------------------------------------------
 outro                                                                        

-13-15-12-10-13-15-12-17-13-15-12-10-13-15-12-17-13---------------------------
------------------------------------------------------------------------------
------------------------------------------------------------------------------
------------------------------------------------------------------------------
------------------------------------------------------------------------------
------------------------------------------------------------------------------
 let ring, fade out                                                           

Comments