Pearl Jam - Soildier Of Love Chords & Tabs

 

Soildier Of Love Chords & Tabs

Pearl Jam Chords & Tabs

Version: 1 Type: Tab 0 ratings
1 star 2 stars 3 stars 4 stars 5 stars
comments

Soildier Of Love Tab

Author/Artist: pearl jam
Title: soldier of love
Transcribed by: Saverain
Email: saverain@hotmail.com

This is what it sounds like to me and if you don't like it E-mail me
you'll have to find the lyrics somewhere else sorry. I are not to good words

v strum down
^ strum up
b bend   r release bend    h hammer on
m mute   / slide up   \ slide down  
s strum down slowly

-|-----------------------------|-----------------|----------------------------
-|-----------------------------|-----------------|----------------------------
-|-----------------------------|-----------------|----------------------------
-|-----------------------------|-----------------|----------------------------
-|-7--x-2--4-4-4---------------|-7--x-2--4-4-4---|----------------------------
-|---------------9--x-4--4-4-4-|---------------9-|----------------------------
  bass     ^ v ^ vm    m                                                      
[ Tab from: http://www.guitartabs.cc/tabs/p/pearl_jam/soildier_of_love_tab.html ]
-|------4----4-|---|-------------|---|----------------------------------------
-|----x-5--5-5-|---|----x-9----9-|---|----------------------------------------
-|----x-6--6-6-|---|----x-9--9-9-|---|-------6--------------------------------
-|-6--x-6--6-6-|2x-|----x-9--9-9-|2x-|-----6-6--6-----------------------------
-|-4--x-4--4-4-|---|-7--x----7-7-|---|---4--------4---------------------------
-|-------------|---|-------------|---|-4--------------------------------------
   v  v ^m ^ vm  con rythm m    m                  m                          

-------------------------------------|-----7----4-----------------------------
-------------------------------------|-9---9----4-----------------------------
-------3-3--------1--1-----------9---|-9--------5-----------------------------
-----4-4---4-----------2---------9---|-9--------6-----------------------------
---4---------2--2--------2--2--2-----|-7-----7--6-----------------------------
-2-----------0--------------0--------|-7-----7--4-----------------------------
                                       s   v vm s                             

---------------------------|--------------------------------------------------
---------------------9-----|--------------------------------------------------
-6--6-x--8--8-x--1---9-----|--------------------------------------------------
-7--7-x--9--9-x--2---9-----|--------------------------------------------------
-7--7-x--9--9-x--2---------|--------------------------------------------------
-5-------7-------0---------|--------------------------------------------------
     m       m
Comments