Pearl Jam - Sleight Of Hand Chords & Tabs

 

Sleight Of Hand Chords & Tabs

Pearl Jam Chords & Tabs

Version: 1 Type: Tab 0 ratings
1 star 2 stars 3 stars 4 stars 5 stars
comments

Sleight Of Hand Tab

#----------------------------------PLEASE NOTE--------------------------------#
#This file is the author's own work and represents their interpretation of the#
#song. You may only use this file for private study, scholarship, or research.#
#-----------------------------------------------------------------------------#
#-- File created with Instab - http://www.pconline.com/~smcarey/instab.html --#
#-----------------------------------------------------------------------------#

Author/Artist: Pearl Jam
Title: Sleight Of Hand
Album: Binaural
Transcribed by: Rick S.
Email: ricksloukji@hotmail.com

Sonically and lyrically my favourite song on the album.
[ Tab from: http://www.guitartabs.cc/tabs/p/pearl_jam/sleight_of_hand_tab.html ]
-----10-----9-----------------------------------------------------------------
---8------5--------10---------------------------------------------------------
-9------7-------11--------9-9/11v---------------------------------------------
--------------9---------7-----------------------------------------------------
------------------------------------------------------------------------------
------------------------------------------------------------------------------
 v Indicates vibrato                                                          

------------------------------------------------------------------------------
------------------------------------------------------------------------------
-9---7---9---7---9---7---6--4-------------------------------------------------
-9---7---9---7---9---7---7--5-------------------------------------------------
-7---5---7---5---7---5---7--5-------------------------------------------------
-7---5---7---5---7---5---5--3-------------------------------------------------
 Chorus                                                                       

-------15--------14-----10----------------------------------------------------
----13--------10------8------10-----------------------------------------------
-14--------12-------9------7--------------------------------------------------
------------------------------------------------------------------------------
------------------------------------------------------------------------------
------------------------------------------------------------------------------
                                                                              

Comments