Pearl Jam - Save You Chords & Tabs

 

Save You Chords & Tabs

Pearl Jam Chords & Tabs

Version: 3 Type: Tab 0 ratings
1 star 2 stars 3 stars 4 stars 5 stars
comments

Save You Tab

This is my first time doing a tab online. This is a different version on how to do the 
but I am sure it is right and after a few minutes of practice it should be easy.

This is just the intro which is really the main riff of the whole song.

[ Tab from: http://www.guitartabs.cc/tabs/p/pearl_jam/save_you_tab_ver_3.html ]
e--------------------------------------------------|
B--------------------------------------------------|
G-----3-3--2--0------------------------------------|
D-----2-2--2--0--5-5-5-5-5-5-----------------------|
A-------------0--3-3-3-3-3-3-----------------------|
E--0-----------------------------------------------|

repeat as many times as needed

sometime in the middle of the riff the verse change a little, you have to listen to the 
to know when, but it changes into this:

e------------------------------------------------|
B------------------------------------------------|
G-----3-3--2--0----------------------------------|
D-----2-2--2--0----------------------------------|
A-------------0--2-2-2-2-2-2---------------------|
E--0-------------0-0-0-0-0-0---------------------|
Comments