Pearl Jam - Save You Chords & Tabs

 

Save You Chords & Tabs

Pearl Jam Chords & Tabs

Version: 2 Type: Tab 0 ratings
1 star 2 stars 3 stars 4 stars 5 stars
comments

Save You Tab

As far as I know this is the first tab for this song on this site, probably
meaning it's gonna be bad, but give it a go and see what you think.

Verse
|----------------------------
|---10-11-8-x----------------
|-9-9--10-7-x-5-5-5--5-5-5-5-
|-9-7--8--5-x-5-5-5--5-5-5-5-
|-7-----------3-3-3--3-3-3-3-
|----------------------------
[ Tab from: http://www.guitartabs.cc/tabs/p/pearl_jam/save_you_tab_ver_2.html ]
Chorus (chords)
|----------------------
|----------------------
|-9-----12-----5-----7-
|-9-----12-----5-----7-
|-7-----10-----3-----5-
|---------------------- x2

|---------------------------
|---------------------------
|-9-----7-----5-----4-----3-
|-9-----7-----5-----4-----3-
|-7-----5-----3-----2-----1-
|---------------------------

second time round playing the chorus, repeat the first staff twice
and then play the E5 and D5 chords and then do the descent.
Comments