Pearl Jam - Save You Chords & Tabs

 

Save You Chords & Tabs

Pearl Jam Chords & Tabs

Version: 1 Type: Bass Tab 0 ratings
1 star 2 stars 3 stars 4 stars 5 stars
comments

Save You Bass Tab

   
Song: Save You
Artist: Pearl Jam
Album: Riot Act
Tabbed by: Jase Warner (i_dissapeared_in_you@hotmail.com)

Standard Tuning (E,A,D,G)

Verse:

G|-------------------------------| x5
D|*-----5-7\8-7-5---------------*|
A|*-7-7-----------3-33-33-3-\---*|
E|-------------------------------|

G|-------------------------------|
D|------5-7\8-7-5-7-77-77-7------|
A|--7-7--------------------------|
E|-------------------------------|


G|-------------------------------| x3
D|*-----5-7\8-7-5---------------*|
A|*-7-7-----------3-33-33-3-\---*|
E|-------------------------------|

G|-------------------------------|---------------------|
D|*-----5-7\8-7-5-----5-7\8-7-5--|--------------------*|
A|*-7-7-----------7-7------------|-3-3-3333--5-5-5555-*|
E|-------------------------------|---------------------|

Chorus:

G|--------------5------------------7--------| x2
D|*----------5^7-7-5-----------------------*|
A|*-7-7-7777--------7-5-3-3-3333-55-55-555-*|
E|------------------------------------------|

G|---------------------------------------------------|
D|*-------------------------------------------------*|
A|*-77-7-7\-55-5-5\-77-7-7\-5-5-5-5-5-5-5-5-5-5-5-5-*|
E|---------------------------------------------------|

The back to verse and repeat all above until the interlude/variation part:

Interlude/variation

G|-----------------| x6
D|*-----5-7\8-7-5-*|
A|*-7-7-----------*|
E|-----------------|

G|-------------------------------| x3
D|*-----5-7\8-7-5---------------*|
A|*-7-7-----------3-33-33-3-\---*|
E|-------------------------------|

G|-------------------------------|
D|------5-7\8-7-5-7-77-77-7------|
A|--7-7--------------------------|
E|-------------------------------|

G|-------------------------------| x3
D|*-----5-7\8-7-5---------------*|
A|*-7-7-----------3-33-33-3-\---*|
E|-------------------------------|

G|-------------------------------|-----------|
D|*-----5-7\8-7-5-----5-7\8-7-5--|----------*|
A|*-7-7-----------7-7------------|-5-5-5555-*|
E|-------------------------------|-----------|

Then into Chorus:

G|--------------5------------------7--------| x2
D|*----------5^7-7-5-----------------------*|
A|*-7-7-7777--------7-5-3-3-3333-55-55-555-*|
E|------------------------------------------|

G|---------------------------------------------------|
D|*-------------------------------------------------*|
A|*-77-7-7\-55-5-5\-77-7-7\-5-5-5-5-5-5-5-5-5-5-5-5-*|
E|---------------------------------------------------|

Play the main lick through the ending of the song

G|-------------------------------|
D|*-----5-7\8-7-5---------------*|
A|*-7-7-----------3-33-33-3-\---*|
E|-------------------------------|

Then end with:


G|-------------|
D|*-\5-5-55---*|
A|*---------7-*|
E|-------------|
[ Tab from: http://www.guitartabs.cc/tabs/p/pearl_jam/save_you_btab.html ]
Well, that's it; it's rough, but use your ear and imagination
for variations et cetera. Song: Save You
Artist: Pearl Jam
Album: Riot Act
Tabbed by: Jase Warner (i_dissapeared_in_you@hotmail.com)

Standard Tuning (E,A,D,G)

Verse:

G|-------------------------------| x5
D|*-----5-7\8-7-5---------------*|
A|*-7-7-----------3-33-33-3-\---*|
E|-------------------------------|

G|-------------------------------|
D|------5-7\8-7-5-7-77-77-7------|
A|--7-7--------------------------|
E|-------------------------------|


G|-------------------------------| x3
D|*-----5-7\8-7-5---------------*|
A|*-7-7-----------3-33-33-3-\---*|
E|-------------------------------|

G|-------------------------------|---------------------|
D|*-----5-7\8-7-5-----5-7\8-7-5--|--------------------*|
A|*-7-7-----------7-7------------|-3-3-3333--5-5-5555-*|
E|-------------------------------|---------------------|

Chorus:

G|--------------5------------------7--------| x2
D|*----------5^7-7-5-----------------------*|
A|*-7-7-7777--------7-5-3-3-3333-55-55-555-*|
E|------------------------------------------|

G|---------------------------------------------------|
D|*-------------------------------------------------*|
A|*-77-7-7\-55-5-5\-77-7-7\-5-5-5-5-5-5-5-5-5-5-5-5-*|
E|---------------------------------------------------|

The back to verse and repeat all above until the interlude/variation part:

Interlude/variation

G|-----------------| x6
D|*-----5-7\8-7-5-*|
A|*-7-7-----------*|
E|-----------------|

G|-------------------------------| x3
D|*-----5-7\8-7-5---------------*|
A|*-7-7-----------3-33-33-3-\---*|
E|-------------------------------|

G|-------------------------------|
D|------5-7\8-7-5-7-77-77-7------|
A|--7-7--------------------------|
E|-------------------------------|

G|-------------------------------| x3
D|*-----5-7\8-7-5---------------*|
A|*-7-7-----------3-33-33-3-\---*|
E|-------------------------------|

G|-------------------------------|-----------|
D|*-----5-7\8-7-5-----5-7\8-7-5--|----------*|
A|*-7-7-----------7-7------------|-5-5-5555-*|
E|-------------------------------|-----------|

Then into Chorus:

G|--------------5------------------7--------| x2
D|*----------5^7-7-5-----------------------*|
A|*-7-7-7777--------7-5-3-3-3333-55-55-555-*|
E|------------------------------------------|

G|---------------------------------------------------|
D|*-------------------------------------------------*|
A|*-77-7-7\-55-5-5\-77-7-7\-5-5-5-5-5-5-5-5-5-5-5-5-*|
E|---------------------------------------------------|

Play the main lick through the ending of the song

G|-------------------------------|
D|*-----5-7\8-7-5---------------*|
A|*-7-7-----------3-33-33-3-\---*|
E|-------------------------------|

Then end with:


G|-------------|
D|*-\5-5-55---*|
A|*---------7-*|
E|-------------|
[ Tab from: http://www.guitartabs.cc/tabs/p/pearl_jam/save_you_btab.html ]
Well, that's it; it's rough, but use your ear and imagination
for variations et cetera.  Any suggestions welcome, send them
to my e-mail.
Comments