Pearl Jam - Rival Chords & Tabs

 

Rival Chords & Tabs

Pearl Jam Chords & Tabs

Version: 1 Type: Tab 0 ratings
1 star 2 stars 3 stars 4 stars 5 stars
comments

Rival Tab

#----------------------------------PLEASE NOTE--------------------------------#
#This file is the author's own work and represents their interpretation of the#
#song. You may only use this file for private study, scholarship, or research.#
#-----------------------------------------------------------------------------#
#-- File created with Instab - http://www.pconline.com/~smcarey/instab.html --#
#-----------------------------------------------------------------------------#

Author/Artist: Pearl Jam
Title: Rival
Album: Binaural
Transcribed by: Rick S.
Email: ricksloukji@hotmail.com

Pretty lil' Stone ditty. Columbine?

------------------------------------------------------------------------------
--------5--6-6-5--------5--6-6-5----------------------------------------------
--------6--7-7-6--------6--7-6-6----------------------------------------------
--8-8---8--8-8-8--8-8---8--8-8-8----------------------------------------------
--8-8-------------8-8---------------------------------------------------------
--6-6-------------6-6---------------------------------------------------------
                                                                              
[ Tab from: http://www.guitartabs.cc/tabs/p/pearl_jam/rival_tab.html ]
------------------------------------------------------------------------------
------------------------------------------------------------------------------
------------6-----------------------------------------------------------------
-8-----xxx--6---6----666-7----------------------------------------------------
-8-----xxx--4---6----666-7----------------------------------------------------
-6-----xxx--4---4----444-5----------------------------------------------------
                                                                              

------------------------------------------------------------------------------
----5-6-5-6-6-8-10-8-6-5------------------------------------------------------
--7----------------------7-8-5/7-8-8/10-8-------------------------------------
------------------------------------------------------------------------------
------------------------------------------------------------------------------
------------------------------------------------------------------------------
                                                                              

------------------------------------------------------------------------------
------------------------------------------------------------------------------
------------555---------------------------------------------------------------
--888--444--555-555-----------------------------------------------------------
--888--444--555-555-----------------------------------------------------------
--666--222--333-333-----------------------------------------------------------
                                                                              

Comments