Pearl Jam - Rearview Mirror Chords & Tabs

 

Rearview Mirror Chords & Tabs

Pearl Jam Chords & Tabs

Version: 1 Type: Bass Tab 0 ratings
1 star 2 stars 3 stars 4 stars 5 stars
comments

Rearview Mirror Bass Tab

                     "rearviewmirror"
                by Pearl Jam from the album "Vs
            Tabbed by Dave Miller (dwm3@po.cwru.edu)


     Verse                                                                      
||----------------------------------------
||*---------------------------------------
||*---------5-----5--7--------5-----5--7--
||----5--5-----5--------5--5-----5--------
     I took a drive today...                                           
[ Tab from: http://www.guitartabs.cc/tabs/p/pearl_jam/rearview_mirror_btab.html ]
     Verse (second part)                                                        
||----------------------------------------
||*---------------------------------------
||*---------7-----7--9--------7-----7--9--
||----7--7-----7--------7--7-----7--------
    I guess it was the beatings...                                            

     Chorus                                                                     
||-------------------------------------------
||*------------------------------------------
||*---2-----2--4-----------------------------
||----------------3-----3--5--2-----0--2--3--
     I couldn't breathe...                                        

     Bridge                                                                     
||-------------------------------------------
||*------------------------------------------
||*------------------------------------------
||----5--5-----5--5-----5--5-----5--5--------
       (*leads back into verse from chorus*)
Comments