Pearl Jam - Parting Ways Chords & Tabs

 

Parting Ways Chords & Tabs

Pearl Jam Chords & Tabs

Version: 2 Type: Tab 0 ratings
1 star 2 stars 3 stars 4 stars 5 stars
comments

Parting Ways Tab

   
name: Scott McClure

artist: Pearl Jam

SongTitle: Parting Ways

Tabs: Pearl Jam
"Parting Ways" from Binaural
Send corrections or comments to sl_mcclure@hotmail.com

Standard tuning

Intro:
    E                                      A
e---0-----0---------0-----0----------------------------------
B---0-----0---------0----------------------2-0-2-3p2-----0-2-
G---1-0-1-1-2-1-0-1-1-0-1---1-2-1-(0)-(1)--2-2-2-----4p2-----
D---2-----2---------2----------------------2-2-2-------------
A---2-----2---------2----------------------0-0-0-------------
E---0-----0---------0----------------------------------------

e-------------------
B-2-0-2-3p2-----0h2-
G-2-2-2-----4p2-----
D-2-2-2-------------
A-0-0-0-------------
E-------------------

Verse: Play the above part twice
[ Tab from: http://www.guitartabs.cc/tabs/p/pearl_jam/parting_ways_tab_ver_2.html ]
Chorus:"And though her mood..."
    F#        G         E
e---2-2-2-2-2/3-3-3-3-3-0-----0---------
B---2-2-2-2-2/3-3-3-3-3-0-----0---------
G---3-3-3-3-3/4-4-4-4-4-1-0-1-1-2-1-0-1-   Repeat
D---4-4-4-4-4/5-5-5-5-5-2-----2---------
A---4-4-4-4-4/5-5-5-5-5-2-----2---------
E---2-2-2-2-2/3-3-3-3-3-0-----0---------

Stay on E until the Verse starts again

Outro: Ad lib on E the whole time

Lyrics:
Behind her eyes there's curtains
And they've been closed to hide the flames...remains
She knows their futures burning
But she can smile just the same
And though her mood is fine today
There's a fear they'll soon be parting ways
Standing like a statue
Chin of stone, heart of clay...hey
And though he's too big a man to say
There's a fear they'll soon be parting ways
Drifting away

Comments