Pearl Jam - Of The Girl Chords & Tabs

 

Of The Girl Chords & Tabs

Pearl Jam Chords & Tabs

Version: 2 Type: Bass Tab 0 ratings
1 star 2 stars 3 stars 4 stars 5 stars
comments

Of The Girl Bass Tab

Of the Girl
Pearl Jam
Tabbed by Nick Key (nkey@ionet.net)

standard tuning.
easy song - really just two parts

intro: 
(After the bass and drums come in, play
only one of these phrases each time the 
guitar riff goes around)
Phr. 1
 ^   ^(2)    ^---3---^    ^---4---^
--------------------------------------
---------------2-4--------------------    
-4---4-------4-----4--------4-2-4----- 
--------------------------2-----------

Repeat the third and fourth phrases the same way, 
then pick it up, playing two phrases per guitar round.

In this order: 4, 4, 4, 3, 4
[ Tab from: http://www.guitartabs.cc/tabs/p/pearl_jam/of_the_girl_btab_ver_2.html ]
Only two parts to the song
Verse/Solos - same rhythym as intro (two phrases per round)
It doesn't really matter, though.  Play it
however many different ways you want.  It's not
about what pattern, it's about how.  Lock in.  
this is a great groove to lose yourself in.
----------------------------------------
----2-4-------------------------2-4----- 
--4-----4-----4-2-4----4-2-4--4-----4---
------------2--------2------------------

Chorus
Pay attention - every time before the E
comes in, the bass stops while the guitar
does a little melodic fill.  
           ^sometimes he stops on this note
--------------------------
--------------------------
-7-77-7-7/11-11-11-11-11--
--------------------------
Comments