Pearl Jam - Oceans Chords & Tabs

 

Oceans Chords & Tabs

Pearl Jam Chords & Tabs

Version: 2 Type: Tab 0 ratings
1 star 2 stars 3 stars 4 stars 5 stars
comments

Oceans Tab

Oceans
by pearl jam
form the cd Ten

transcribed by Kevin Gardner code@wam.umd.edu

The guitar is turn to open D for this song
which is spelled from low string to high
string DADF#AD, and is treated with some
chorus and reverb.

-D---|-0---------------------11-11--|- \
-A---|-0---------------------11-11--|-  |
-F#--|-0---------------------12-11--|-  4x
-D---|-0---------------------11-11--|-  |
-A---|-12--------------------11-11--|-  |
-D---|-12--------------------11-11--|- /
       hold on to the thrill
the currents will shift like me twords you know
somethings left and were all alive to dream
of the next...

D--|--10-10-10-10---|-
A--|--10-10-10-10---|-
F#-|--10-10-10-10---|-
D--|--10-10-10-10---|-
A--|--10-10-10-10---|-
D--|--10-10-10-10---|- 

D--|--10-10-10-10---10-10-10-10-10--10-10-10-10--|- \
A--|--10-10-10-10---10-10-10-10-10--10-10-10-10--|- |
F#-|--12-12-13-13---13-13-13-13-13--12-13-12-10--|- 2x
D--|--10-10-10-10---10-10-10-10-10--10-10-10-10--|- |
A--|--10-10-10-10---10-10-10-10-10--10-10-10-10--|- |
D--|--10-10-10-10---10-10-10-10-10--10-10-10-10--|-/

time we do... 

D--|--0----0---0--0--10-10-10-10-10--|- \
A--|--12---11--9--5--10-10-10-10-10--|- |
F#-|--0----0---0--0--12-12-12-12-12--|- 2x
D--|--0----0---0--0--10-10-10-10-10--|- |
A--|--12---11--9--5--10-10-10-10-10--|- |
D--|--0----0---0--0--10-10-10-10-10--|- /
strum these chords
lightly following
the vocal meledy

[ Tab from: http://www.guitartabs.cc/tabs/p/pearl_jam/oceans_tab_ver_2.html ]
D--|--10-10-10-10---10-10-10-10-10--10-10-10-10--|- \
A--|--10-10-10-10---10-10-10-10-10--10-10-10-10--|- |
F#-|--12-12-13-13---13-13-13-13-13--12-13-12-10--|- 2x
D--|--10-10-10-10---10-10-10-10-10--10-10-10-10--|- |
A--|--10-10-10-10---10-10-10-10-10--10-10-10-10--|- |
D--|--10-10-10-10---10-10-10-10-10--10-10-10-10--|-/


-D---|-0---------------------11-11--|- \
-A---|-0---------------------11-11--|-  |
-F#--|-0---------------------12-11--|-  4x
-D---|-0---------------------11-11--|-  |
-A---|-12--------------------11-11--|-  |
-D---|-12--------------------11-11--|- /
       you dont have to stray
the oceans away waves roll in my thoughts
old tied the ring the sea will rise 
please stand by the shore

D--|--10-10-10-10---|-
A--|--10-10-10-10---|-
F#-|--10-10-10-10---|-
D--|--10-10-10-10---|-
A--|--10-10-10-10---|-
D--|--10-10-10-10---|- 


D--|--10-10-10-10---10-10-10-10-10--10-10-10-10--|- \
A--|--10-10-10-10---10-10-10-10-10--10-10-10-10--|- |
F#-|--12-12-13-13---13-13-13-13-13--12-13-12-10--|- 2x
D--|--10-10-10-10---10-10-10-10-10--10-10-10-10--|- |
A--|--10-10-10-10---10-10-10-10-10--10-10-10-10--|- |
D--|--10-10-10-10---10-10-10-10-10--10-10-10-10--|-/

D--|--0----0---0--0--10-10-10-10-10--|- \
A--|--12---11--9--5--10-10-10-10-10--|- |
F#-|--0----0---0--0--12-12-12-12-12--|- 4x
D--|--0----0---0--0--10-10-10-10-10--|- |
A--|--12---11--9--5--10-10-10-10-10--|- |
D--|--0----0---0--0--10-10-10-10-10--|- /
strum these chords
lightly following
the vocal meledy

-D---|-0---------------------11-11--|- \
-A---|-0---------------------11-11--|-  |
-F#--|-0---------------------12-11--|-  3x
-D---|-0---------------------11-11--|-  |
-A---|-12--------------------11-11--|-  |
-D---|-12--------------------11-11--|- /

end
Comments