Pearl Jam - Nothingman Chords & Tabs

 

Nothingman Chords & Tabs

Pearl Jam Chords & Tabs

Version: 1 Type: Bass Tab 0 ratings
1 star 2 stars 3 stars 4 stars 5 stars
comments

Nothingman Bass Tab

ARTIST: Pearl Jam
SONG: "Nothingman"
Bass Tablature by Jim Boza (hairflip@aol.com)

Since I was trying to figure this one out anyway, I figured I'd post it.
This should be pretty darn close....  I think Jeff Ament uses a fretless on
this song (why not, he does on every other song anyway), but it sounds
halfway decent with frets, too.

Verse:

G-|------------------|-
D-|------------------|-
A-|-8---8/5--3--5----|-
E-|----------------6-|-

To Pre-Chorus:

G-|---------------------|-
D-|---------------------|-
A-|-1---1-1--/5---------|-
E-|---------------------|-

Pre-Chorus:
[ Tab from: http://www.guitartabs.cc/tabs/p/pearl_jam/nothingman_btab.html ]
G-|---------------------|-
D-|---------------------|-
A-|-3--3--3---1--1--0---|-
E-|---------------------|-

G-|---------------------|-
D-|---------------------|-
A-|-1--1--/3------------|-
E-|---------------------|-

Chorus:

G-|------------------------|-
D-|------------------------|-
A-|-8--8--/1--3--3--3--333-|-
E-|-------------------------|-


Bridge:

G-|----------------------------------------|-
D-|----------------------------------------|-
A-|--5--5--/1--3--1--5--5--/1--3--3--/5--1-|-
E-|----------------------------------------|-

G-|----------|-        (After short rest)
D-|----------|-
A-|--5--1--3-|-
E-|----------|-

Outro:

G-|-------|-
D-|-------|-
A-|--8----|-
E-|-----6-|-


Comments