Pearl Jam - Nothing As It Seems Chords & Tabs

 

Nothing As It Seems Chords & Tabs

Pearl Jam Chords & Tabs

Version: 2 Type: Tab 0 ratings
1 star 2 stars 3 stars 4 stars 5 stars
comments

Nothing As It Seems Tab

   
Artist - Pearl Jam
Song - Nothing As It Seems
Album - Binural


This song has two main chords, B minor and B augmented. I have tabbed this in regular tuning but on the 
i think it is detuned. Anyway here it is:


Intro

(note in brackets for reference only)


B Minor x24432
B Aug   x24332


E/-------------------------------------------------------------7------7-----------|
B/----------------------------------------------------------------10-----10^r(10)-|
G/---9^(11)----9^r(9)----9^--9^----7--------------7--9--9^------------------------|
D/------------------------------------9--------9----------------------------------|
A/--------------------------------------------------------------------------------|
E/--------------------------------------------------------------------------------|


E/---7-------7---10^r(10)---10^--------|
B/------10-----------------------------|
G/-------------------------------------|
D/-------------------------------------|
A/-------------------------------------|
E/-------------------------------------|

Chorus

D  xx0232
A  x02220
Bm x24432

Solo
[ Tab from: http://www.guitartabs.cc/tabs/p/pearl_jam/nothing_as_it_seems_tab_ver_2.html ]
E/---------7-----------------7-------------------7-------------------------------------|
B/---10^------10---7---10^------10---7---10^--------10--7--10--7-----------------------|
G/----------------------------------------------------------------9--9^--r9--7---7--9^-|
D/-----------------------------------------------------------------------------9-------|
A/-------------------------------------------------------------------------------------|
E/-------------------------------------------------------------------------------------|


E/-------------------------------------------------------------------------------------|
B/-----------------------------------------15--17--17^---17^-17^-17^-17^-17^-17^-15----|
G/---9^r(9)p7------7---9^---9p7-------/16----------------------------------------------|
D/--------------9----------------9-----------------------------------------------------|
A/-------------------------------------------------------------------------------------|
E/-------------------------------------------------------------------------------------|


E/-----------------------------------------------------------------------------|
B/---17--17^r(17)p15--17--17^r17--15----15--17--17^r(17)--15--17--15--17^r(17)-|
G/-----------------------------------16----------------------------------------|
D/-----------------------------------------------------------------------------|
A/-----------------------------------------------------------------------------|
E/-----------------------------------------------------------------------------|
Comments