Pearl Jam - No Way Chords & Tabs

 

No Way Chords & Tabs

Pearl Jam Chords & Tabs

Version: 1 Type: Bass Tab 0 ratings
1 star 2 stars 3 stars 4 stars 5 stars
comments

No Way Bass Tab

   
PEARL JAM "NO WAY"  -BASS TAB
-----------------------------
Normal tuning EADG
The bass comes in in the second half of the verse
|-------------|
|-------------|
|-------------|
|---14\-------|

Main Line:
|--------------------|   Unfortunatly stone played bass for this song
|--------------------|   and being a guitarist there are many variations
|--------------------|   Just play around with this riff and have fun
|----7-7-5-7--3-2----|

"Let's call in an angel" bit
|--------------------------------------|
|--------------------------------------|
|--------------------------------------|
|---0-0-0-0-1-1-1-1-2-2-2-2-3-3-3-3----|
[ Tab from: http://www.guitartabs.cc/tabs/p/pearl_jam/no_way_btab.html ]
Interlude:  (bass solo)
|----------------------------------------|
|-----------7-5---7--5-3---5--3-1---3----|
|------------------------3--------1------|
|---3--3-3----------------------------3h4|
                                                  
Verse is now played up around the octave
|-----------|---------------|
|-7-5---5-5-|---------------|
|-----7-----|-7-5-7-7-5-5---|
|-----------|-------------7-|

|---------------------------|
|---------------------------|
|---5---7---5---------------|
|---------------7---3-------|

 h = hammeron
 p = pulloff
 ~ = vibrato
 / = slide up
 \ = slide down
(X)= hold note (let ring)

Tabbed by Mark Linwood

Hint suggesstions or comments to (Rlinwood@powerup.com.au)
I will reply to all emails
Comments