Pearl Jam - No Code Chords & Tabs

 

No Code Chords & Tabs

Pearl Jam Chords & Tabs

Version: 1 Type: Tab 0 ratings
1 star 2 stars 3 stars 4 stars 5 stars
comments

No Code Tab

   
NO CODE
by PEARL JAM




Sometimes by Pearl Jam

Transcribed by Trent Slade (slab@senet.com.au)
             & Paul Stipack (paul.stipack@hunterlink.net.au)


INTRO:
Guitar 1:
E|---------------------------------|
B|---------------------------------|
G|-----5-----5---5-----5-------5---|
D|-0-0---0-0---0---6-6---6-7-7---7-|
A|---------------------------------|
E|---------------------------------|

Guitar 2:     Add this the first few times at the end of guitar 1 riff
E|---------|  E|-17-|----17-|----17-|----17----|-
B|-5-5-6-7-|  B|-17-|-17----|-17----|-17----17-|-
G|---------|  G|----|-------|-------|----------|-
D|---------|  D|----|-------|-------|----------|-(etc)
A|---------|  A|----|-------|-------|----------|-
E|---------|  E|----|-------|-------|----------|-

bass:
G-|----------------|-
D-|-------6--/7----|-
A-|---5------------|-
E-|----------------|-

PRE CHORUS:
E|-------------------------------|-
B|-------------------------------|-
G|-------------------------------|-
D|-------------------------------|-
A|-----3-----3---3-----3-------3-|-
E|-1-1---1-1---1---0-0---0-1-1---|-

CHORUS:
D-|-----------------|-----------------|-----------------|-
A-|-----------------|-----------------|-----------------|-
E-|-6-6-6-6-6-6-6-6-|-7-7-7-7-7-7-7-7-|-8-8-8-8-8-8-8-8-|-
    the many on the   shelf      some  times I know  some

D-|-----------------|-----------------|-----------------|-
A-|-----------------|-----------------|-----------------|-
E-|-5-5-5-5-5-5-5-5-|-6-6-6-6-6-6-6-6-|-7-7-7-7-7-7-7-7-|-
   times I rise some times I fall some times I don't some 

D-|-----------------|-----------------|-------------------|-
A-|-----------------|-----------------|-------------------|-
E-|-8-8-8-8-8-8-8-8-|-6-6-6-6-6-6-6-6-|-7-7-7-7-7-7-7-7-7-|-
  times I cringe some times I live some times I walk some   

D-|-----------------|-----------------|-------------------|-
A-|-----------------|-----------------|-------------------|-
E-|-8-8-8-8-8-8-8-8-|-6-6-6-6-6-6-6-6-|-7-7-7-7-7-7-7-7-7-|-
   times I kneel some times  I  speak  of  nothing at all
  
   sometimes I reach to myself   dear God


RIFF PLAYED UNDER CHORUS:
E-|-17----17----17----17----17----17----|-
B-|----18----18----18----18----18----18-|-
G-|-------------------------------------|-
D-|-------------------------------------|-(etc)
A-|-------------------------------------|-
E-|-------------------------------------|-


OUTRO:
Guitar 1:
E-|--------------------|-
B-|--------------------|-
G-|--------------------|-
D-|-----3------3-----3-|-(repeat many times)
A-|--------------------|-
E-|-1-1----1-1-----1---|-

Guitar 2:
E|-13--15-12------13--15-12-----|-
B|-------------15---------------|-
G|------------------------------|-
D|------------------------------|-
A|------------------------------|-
E|------------------------------|-

bass:
G-|--------------|-
D-|--------------|-
A-|12\8---10--7--|-
E-|--------------|-



Hail, Hail by Pearl Jam

Transcribed by Paul Stipack (paul.stipack@hunterlink.net.au)

This tab should be fairly accurate 'cause I saw how they played
it on Letterman.

INTRO:
E-|------1-1------------------------------------|-
B-|-3-3--1-1------------3-3--5-5--8--8--6-6-6-6-|-
G-|-2-2--2-2--2-2--3-3--4-4--6-6--9--9--7-7-7-7-|-
D-|-0-0--3-3--2-2--3-3--5-5--7-7--10-10-8-8-8-8-|-(x2)
A-|------3-3--4-4--5-5--5-5--7-7--10-10-8-8-8-8-|-
E-|---------------------3-3--5-5--8--8--6-6-6-6-|-

VERSE:
E-|-------------------------------------------------|-
B-|-3-3-3-3/-6-3-3-3-3/-6-3/-6-6-6-6\-3-6-6-6-6--8--|-
G-|-4-4-4-4/-7-4-4-4-4/-7-4/-7-7-7-7\-4-7-7-7-7--9--|-
D-|-5-5-5-5/-8-5-5-5-5/-8-5/-8-8-8-8\-5-8-8-8-8--10-|-
A-|-5-5-5-5/-8-5-5-5-5/-8-5/-8-8-8-8\-5-8-8-8-8--10-|-
E-|-3-3-3-3/-6-3-3-3-3/-6-3/-6-6-6-6\-3-6-6-6-6--8--|-

E-|---------------------------------------------|-
B-|-3-3-3-3/-6-3-3-3-3/-6-3/-6-6-6-6\-3-6-6-6-6-|-
G-|-4-4-4-4/-7-4-4-4-4/-7-4/-7-7-7-7\-4-7-7-7-7-|-
D-|-5-5-5-5/-8-5-5-5-5/-8-5/-8-8-8-8\-5-8-8-8-8-|-
A-|-5-5-5-5/-8-5-5-5-5/-8-5/-8-8-8-8\-5-8-8-8-8-|-
E-|-3-3-3-3/-6-3-3-3-3/-6-3/-6-6-6-6\-3-6-6-6-6-|-


CHORUS:
E-|------1-1------------------------------|-
B-|-3-3--1-1------------3-3--5-5--8--8--6-|-
G-|-2-2--2-2--2-2--3-3--4-4--6-6--9--9--7-|-
D-|-0-0--3-3--2-2--3-3--5-5--7-7--10-10-8-|-(x2)
A-|------3-3--4-4--5-5--5-5--7-7--10-10-8-|-
E-|---------------------3-3--5-5--8--8--6-|-


BRIDGE: STONE'S PART               G
E-|------------|-         -|-3--3--3--3-|-
B-|-3----------|-         -|-3--3--3--3-|-
G-|-2--2--3--0-|-         -|-0--0--0--0-|-
D-|-0--2--3--0-|-(x 4)    -|-0--0--0--0-|-(ad lib here)
A-|----0--1--x-|-         -|-2--2--2--2-|-
E-|----------3-|-         -|-3--3--3--3-|-      

E-|--------------------------------------|-
B-|-6-3-3-3-3/-6-3/-6-6-6-6\-3-6-6-6-6/--|-
G-|-7-4-4-4-4/-7-4/-7-7-7-7\-4-7-7-7-7/--|-
D-|-8-5-5-5-5/-8-5/-8-8-8-8\-5-8-8-8-8/--|-
A-|-8-5-5-5-5/-8-5/-8-8-8-8\-5-8-8-8-8/--|-
E-|-6-3-3-3-3/-6-3/-6-6-6-6\-3-6-6-6-6/--|-

BRIDGE: MIKE'S PART
E-|---2--3-----2--5-----|-
B-|-3--------3----------|-
G-|-0--------0----------|-
D-|---------------------|-
A-|---------------------|-
E-|---------------------|-


LAST CHORUS:
E-|------1-1------------------------------|-
B-|-3-3--1-1------------3-3--5-5--8--8--6-|-
G-|-2-2--2-2--2-2--3-3--4-4--6-6--9--9--7-|-
D-|-0-0--3-3--2-2--3-3--5-5--7-7--10-10-8-|-(x2)
A-|------3-3--4-4--5-5--5-5--7-7--10-10-8-|-
E-|---------------------3-3--5-5--8--8--6-|-

E-|------------------|- 
B-|-3-2--------------|-
G-|-2-3--2-2--3-3--0-|- 
D-|-0-0--2-2--3-3--0-|-(x 4)
A-|------0-0--1-1--x-|-
E-|----------------3-|- 

OUTRO:
E-|---2--3-----2--5-----|-
B-|-3--------3----------|-
G-|-0--------0----------|-
D-|---------------------|-(while the other guitar plays G)
A-|---------------------|-
E-|---------------------|-



Who You Are by Pearl Jam

Transcribed by Paul Stipack(paul.stipack@hunterlink.net.au)

I'm sure that PJ use some kind of alternative tuning for this one,
so here's a tab for it in open E. Enjoy!

VERSE RIFF:
              (*)
E-|--0-0-0-0-0-0-|-0-0-0-0-0-0-|-
B-|--5-7-9-9-9-9-|-9-7-5-5-5-5-|-
G#|--0-0-0-0-0-0-|-0-0-0-0-0-0-|-
E-|--0-0-0-0-0-0-|-0-0-0-0-0-0-|-(x 3) Note: when song first starts,
B-|--------------|-------------|-            start at the (*)
E-|--------------|-------------|-

E-|--0-0-0-0-0-0-|-0-0-0-0-0-0-|-
B-|--5-4-0-0-0-0-|-5-4-5-0-0-0-|-
G#|--0-0-0-0-0-0-|-0-0-0-0-0-0-|-
E-|--0-0-0-0-0-0-|-0-0-0-0-0-0-|-
B-|--------------|-------------|-
E-|--------------|-------------|-


INTERLUDE 1:
E-|-0-----0---0---0---0---0---0-|---0---0---0---0---0---0-|-
B-|---0-2---2---2---2---2---2---|-4---4---4---4---4---4---|-
G#|-----------------------------|-------------------------|-
E-|-----------------------------|-------------------------|-
B-|-----------------------------|-------------------------|-
E-|-----------------------------|-------------------------|-

E-|---0---0---0---0---0---0-|---0---0---0---0---0---0-|-
B-|-5---5---5---5---5---5---|-5---5---5---5---5---5---|-
G#|-------------------------|-------------------------|-
E-|-------------------------|-------------------------|-
B-|-------------------------|-------------------------|-
E-|-------------------------|-------------------------|-

INTERLUDE 2:
E-|--0-0-0-0-0-0-0-0-0-0-0-0-0-0-0-|-
B-|--5-4-5-4-2-4-2-0-2-4-2-4-5-4-5-|-
G#|--0-0-0-0-0-0-0-0-0-0-0-0-0-0-0-|-
E-|--0-0-0-0-0-0-0-0-0-0-0-0-0-0-0-|-(x 2)
B-|--------------------------------|-
E-|--------------------------------|-

E-|--0-0-0-0----0-0---0-0-0-0----0-0---0-0-0-0-0-0-0---0--0-0-0--0---0-|
B-|--5-4-5-5/9--7-5---5-4-5-5/7--5-4---4-5-4-5-4-5-5/7-5--5-4-5--5/7-5-|
G#|--0-0-0-0----0-0---0-0-0-0----0-0---0-0-0-0-0-0-0---0--0-0-0--0---0-|
E-|--0-0-0-0----0-0---0-0-0-0----0-0---0-0-0-0-0-0-0---0--0-0-0--0---0-|
B-|--------------------------------------------------------------------|
E-|--------------------------------------------------------------------|


BASS RUN THINGY:
E-|----------------------------------------------|-
B-|----------------------------------------------|-
G#|--3--5--7--8---10--12--10--8---7--8---7--5--3-|-
E-|----------------------------------------------|-(etc)
B-|--5--7--9--10--12--14--12--10--9--10--9--7--5-|-
E-|----------------------------------------------|-



In My Tree by Pearl Jam

Transcribed by Paul Stipack (paul.stipack@hunterlink.net.au)

This one's a little tricky to figure out properly, but here is my
attempt at it in standard tuning. Comments and corrections would
be much appreciated.

INTRO: (Bass)
G-|------------------------------------|-
D-|------------------------------------|-(This may be an octave too
A-|-7-7-7-7--9-9-9-9-------------------|- low, I figured it out on
E-|-------------------5-5-5-5--7-7-7-7-|- a normal guitar)
   
    E
E-|-------|-------|-
B-|-0-0-0-|-0-0-0-|-
G-|-9-9-9-|-9-9-9-|-
D-|-9-9-9-|-9-9-9-|-
A-|-7-7-7-|-7-7-7-|-
E-|-0-0-0-|-0-0-0-|-

VERSE PROGRESSION:
E-|--------------------------------------------|-
B-|--------------------------------------------|-
G-|-9-9-9-9--9-9-9-9--14-14-14-14--------------|-
D-|-9-9-9-9--9-9-9-9--14-14-14-14--14-14-14-14-|-
A-|-7-7-7-7--6-6-6-6--12-12-12-12--14-14-14-14-|-
E-|-0-0-0-0--0-0-0-0--0--0--0--0---0--0--0--0--|-

CHORUS PROGRESSION:
    G    A    E
E-|-------------------|-
B-|-------------------|-
G-|-4-4--6-6--1-1-1-1-|-
D-|-5-5--7-7--2-2-2-2-|-
A-|-5-5--7-7--2-2-2-2-|-
E-|-3-3--5-5--0-0-0-0-|-

BRIDGE PROGRESSION:
    Bm F  Bm A  Bm F  Bm Dsus2
E-|-2--1--2-----2--1--2--0---|-
B-|-3--1--3-----3--1--3--3---|-
G-|-4--2--4--2--4--2--4--2---|-
D-|-4--3--4--2--4--3--4--0---|-(x 2)
A-|-2--3--2--0--2--3--2------|-
E-|----1-----------1---------|-


That's basically it, the last chorus plays the G to A change a couple
times then back into the E chord. Just play along with the CD to get
the structure and strumming correct. Enjoy!



Smile by Pearl Jam

Transcribed by Paul Stipack (paul.stipack@hunterlink.net.au)

Guitar 1: Rhythm
Guitar 2: Lead

INTRO:
Guitar 1:
E-|-----------------------|-
B-|-----------------------|-
G-|-----------------------|-
D-|-2-2---7-7---9-9---7-7-|-(x 4)
A-|-2-2---7-7---9-9---7-7-|-
E-|-0-0---5-5---7-7---5-5-|-

Guitar 2:
E-|------------------10-|-
B-|------------10h12----|-
G-|-----7~~-------------|-
D-|-7h9-----------------|-(x 2)
A-|---------------------|-
E-|---------------------|-

VERSE PROGRESSION:
E-|-----------------------|-
B-|-----------------------|-
G-|-----------------------|-
D-|-2-2---7-7---9-9---7-7-|-(x 3)
A-|-2-2---7-7---9-9---7-7-|-
E-|-0-0---5-5---7-7---5-5-|-

E-|---------------------|-
B-|---------------------|-
G-|---------------------|-
D-|-2-2---7-7---9-9-9-9-|-
A-|-2-2---7-7---9-9-9-9-|-
E-|-0-0---5-5---7-7-7-7-|-


1ST CHORUS:
E-|--3-3--3-3--3-3--3-3-|-
B-|--3-3--3-3--3-3--3-3-|-
G-|--0-0--0-0--0-0--0-0-|-
D-|--0-0--2-2--0-0--2-2-|-(x 3)
A-|--2-2--3-3--2-2--3-3-|-
E-|--3-3----------------|-

E-|--3-3--3-3--3-3--3-3-|-
B-|--3-3--3-3--3-3--3-3-|-
G-|--0-0--0-0--0-0--0-0-|-
D-|--0-0--2-2--0-0--0-0-|-
A-|--2-2--3-3--2-2--2-2-|-
E-|--3-3----------------|-

SOLO: (Over verse progression)
E-|------------------------------|-
B-|------------------------------|-
G-|-9-9-9-9-9-9-9-9-9-9-9-/--x-x-|-
D-|--------------------------x-x-|-(x 2)
A-|------------------------------|-
E-|------------------------------|-

E-|-----------------------|-
B-|-----------------------|-
G-|-----7-9-7-------7-9~~-|-
D-|-7h9---------7h9-------|-(x 3)
A-|-----------------------|-
E-|-----------------------|-


E-|---------------------|-
B-|---------------------|-
G-|-----7-9-7-------7~~-|-
D-|-7h9---------7h9-----|-
A-|---------------------|-
E-|---------------------|-


E-|-12-10--|--12-10---------|--12-10-----------|-
B-|--------|----------------|------------------|-
G-|--------|--------------7-|---------------9~-|-
D-|--------|----------7h9---|----------7h9-----|-
A-|--------|----------------|------------------|-
E-|--------|----------------|------------------|-

2ND CHORUS:
E-|--3-3--3-3--3-3--3-3-|-
B-|--3-3--3-3--3-3--3-3-|-
G-|--0-0--0-0--0-0--0-0-|-
D-|--0-0--2-2--0-0--2-2-|-(x 3)
A-|--2-2--3-3--2-2--3-3-|-
E-|--3-3----------------|-

E-|--3-3--3-3--3-3--3-3-|-
B-|--3-3--3-3--3-3--3-3-|-
G-|--0-0--0-0--0-0--0-0-|-
D-|--0-0--2-2--0-0--0-0-|-
A-|--2-2--3-3--2-2--2-2-|-
E-|--3-3----------------|-

BRIDGE:
Guitar 1:
     Dsus2
E-|--0-0-0-0-0-0-|-
B-|--3-3-3-3-3-3-|-
G-|--2-2-2-2-2-2-|-
D-|--0-0-0-0-0-0-|-(etc)
A-|--------------|-
E-|--------------|-

Guitar 2:
E-|---------|---------|---------|----------------|-
B-|---------|---------|---------|----------------|-
G-|-----7~~-|-----7~~-|-----7~~-|-----7~------7~-|-
D-|-7h9-----|--7~-----|-7h9-----|-7h9-----7h9----|-
A-|---------|---------|---------|----------------|-
E-|---------|---------|---------|----------------|-

OUTRO:
Guitar 1:
E-|-----------------------|-
B-|-----------------------|-
G-|-----------------------|-
D-|-2-2---7-7---9-9---7-7-|-
A-|-2-2---7-7---9-9---7-7-|-
E-|-0-0---5-5---7-7---5-5-|-

Guitar 2:
E-|---------------------|------------------|-
B-|---------------------|------------------|-
G-|---------------------|------------------|-
D-|---------------------|------------------|-(repeat till fade)
A-|------5-7-5-----5--7-|-----5-7-5------5-|-
E-|--5h7-------5h7------|-5h7--------5h7---|-


Note: The verse progression can be played with variations. For example,
      try this:
E-|-------------------------------------|-
B-|-------------------------------------|-
G-|-------------------------------------|-
D-|-2-2---7-7-5-7---9-9-9-9---7-7-5-7-5-|-
A-|-2-2---7-7-5-7---9-9-7-9---7-7-5-7-5-|-
E-|-0-0---5-5-5-5---7-7-7-7---5-5-5-5-5-|-



Off He Goes by Pearl Jam

Transcribed by Alan Herlihy (homer@bud.swin.edu.au) &
               Paul Stipack (paul.stipack@hunterlink.net.au)
   Modified by Joel Farthing (betterman9@aol.com)
 


INTRO:
           Am Am7 Am
E-|---------------0-|-          
B-|---------1-1-1-1-|-          
G-|---------2-2-0-2-|- x 2      
D-|-----3-2-2-2-2-2-|-          
A-|---3-----0-0-0-0-|-          
E-|-1---------------|-  


E-|---------0-0-0-|-
B-|---------1-1-1-|-
G-|-------2-2-0-0-|-
D-|-----3---3-2-2-|-
A-|---3-----0-3-3-|-
E-|-1-------------|-

VERSE:
E-|--0-0--0-0-0-------|-
B-|--1-1--1-1-1-------|-
G-|--2-2--0-0-0-------|-
D-|--3-3--2-2-2-------|-
A-|--0-0--3-3-3-(etc)-|-
E-|-------------------|-

Then the rest of the song is basically just a combination
or Fmaj7, C and Am chords. A classic "3 chord"-er. Sounds very much
like a Neil Young song.
[ Tab from: http://www.guitartabs.cc/tabs/p/pearl_jam/no_code_tab.html ]
CHORUS:
E-|---------0-0---0--0-|-          
B-|---------1-1-0-1--1-|-  
G-|---------2-2-0-2--2-|-
D-|-----3-2-2-2-0-2--2-|-
A-|---3-----0-0-0-0--0-|-
E-|-1------------------|-
then fmaj7 and C etc...
           
BRIDGE:
E-|--------------|------|--------------|-----------|-
B-|--------------|------|--------------|-----------|-
G-|--------------|------|--------------|-2-0-------|-
D-|-3-2-3-2-3-2--|-0--2-|-3-2-3-2-3-2--|-----0-0-2-|-
A-|-------------3|------|-------------3|-----------|-
E-|--------------|------|--------------|-----------|-

I've put where the bars end, but don't rely on the above
for timing, just listen to the song.

There is another guitar playing little bits here and there,
but I've only done the main guitar bit and I'm not going to
work the 2nd guitar's stuff out.  The actual song is a
little more complex (it's not all strumming) but most of
the song that isn't strummed is based around Fmaj7, C and Am
and is probably just improvised anyway.



Habit by Pearl Jam

Transcribed by Paul Stipack(paul.stipack@hunterlink.net.au)

INTRO & VERSE RIFF:
E-|-----------------------|-
B-|-----------------------|-
G-|-----------------------|-
D-|--7--0--7--6-6-6-6-6-6-|-
A-|--7--0--7--6-6-6-6-6-6-|-
D-|--7--0--7--6-6-6-6-6-6-|-

PRE CHORUS:
E-|--------------------------|-
B-|--------------------------|-
G-|--------------------------|-
D-|---8----8------8------7-7-|-
A-|-6----6----6-6-----0------|-
D-|--------------------------|-

CHORUS:
E-|--------------------|-
B-|--------------------|-
G-|--------------------|-
D-|--3--2--------------|-
A-|--3--2--------------|-
D-|--3--2--0-2-0-2-0-2-|-

BRIDGE:
E-|-------------|-----|-
B-|-------------|-----|-
G-|-------------|-----|-
D-|-3---0-7-----|--2--|-
A-|-3---0-7-(x3)|--2--|-
D-|-3---0-7-----|--2--|-

INTERLUDE:
E-|------------------|-
B-|------------------|-
G-|------------------|-
D-|-3--2--5--4--3--0-|-
A-|-3--2--5--4--3--0-|-
D-|-3--2--5--4--3--0-|-

OUTRO/SOLO: Just improvise in the key of Am.



Red Mosquito by Pearl Jam

Transcribed by: Paul Stipack (paul.stipack@hunterlink.net.au)
                Joel Farthing (Betterman9@aol.com)
                Aaron Rosenblum (osenblm@maybaum.med.umich.edu)

A couple of people have said they've seen PJ play this live and
it's in standard tuning. I've also been told that the opening riff
is played at the 5th fret so I've tried to figure it out there,
I hope it sounds OK.


INTRO:
E-|-------------------|-
B-|-------------------|-
G-|-7---------------7-|-
D-|-7-7-----7-7-----7-|-
A-|-5-0h5p0-8-0h5p0-5-|-
E-|-------------------|-

The lead part uses a slide in some parts and other parts are 
without the slide. Just put the slide on yer pinkey and it frees
up the other three fingers to play the rest of the lead.

w/slide
E-|------------------------------------------------------|
B-|------\10-----\10------\10------10-----10-------------|
G-|--\10-----\10-----\10------\10------10-----10\--------|
D-|-------------------------------------------------12---|
A-|------------------------------------------------------|
E-|------------------------------------------------------|

w/o slide
E-|------------------------------------------------------------|
B-|------------------------------------------------------------|
G-|---------10-12----10h12p10------10-10-----10--12--10--12\---|
D-|--10h12---------------------12---------12-------------------|
A-|------------------------------------------------------------|
E-|------------------------------------------------------------|

E-|-------10-----------------------------------|
B-|-----10--13-10------------------------------|
G-|--12w-----------12w(12)-10---12w--10--------|
D-|--------------------------------------12\---|
A-|--------------------------------------------|
E-|--------------------------------------------|

w/slide (really messy too)       w/o slide
E-|-----------------------------|-----------------------------------------|
B-|-----------------------------|-----------------------------------------|
G-|-----------------------------|-------------10-12----12w-12--10--12-10--|
D-|-----------------------------|-------10-12-----------------------------|
A-|-10--10--10--10\8/5--8-10/5--|-10h12-----------------------------------|
E-|-----------------------------|-----------------------------------------|

E-|------------|
B-|--15w-(15)--|
G-|------------|
D-|------------|
A-|------------|
E-|------------|

VERSE:
   D  F(let ring)                      D  C(let ring)
E|-2--1--------------------------------2--0----------|
B|-3--1--------------------------------3--1----------|
G|-2--2--------------------------------2--0----------|
D|-0--3--------------------------------0--2----------|
A|----------------------------------------3----------|
E|---------------------------------------------------|
the window,little red mosquito...I was not allowed to (etc.)

   D  F(let ring)                      D  C  F  C
E|-2--1--------------------------------2--0--1--0------|
B|-3--1--------------------------------3--1--1--1------|
G|-2--2--------------------------------2--0--2--0------|
D|-0--3--------------------------------0--2--3--2------|
A|----------------------------------------3-----3------|
E|-----------------------------------------------------|
I saw the sun go down, and now..(etc)..somewhere in 

PRE CHORUS:
E-|-------------------|-
B-|-------------------|-
G-|-7---------------7-|-
D-|-7-7-----7-7-----7-|-
A-|-5-0h5p0-8-0h5p0-5-|-
E-|-------------------|-

CHORUS:
    F                  C
E-|------------------|-------------|-
B-|---------10-------|-------5-----|-
G-|------10----10----|-----5---5---|-
D-|---10----------10-|---5-------5-|-
A-|-8----------------|-3-----------|-
E-|------------------|-------------|-

    D#            A#            C
E-|-------------|-------------|------|-
B-|-------8-----|-------3-----|------|-
G-|-----8---8---|-----3---3---|-5--5-|-
D-|---8-------8-|---3-------3-|-5--5-|-
A-|-6-----------|-1-----------|-3--3-|-
E-|-------------|-------------|------|-

LITTLE C RIFF AT END OF CHORUS:
E-|-----------|--------------------|-
B-|-----------|--------------------|-
G-|-10--9-----|-(second--10--9--12-|-
D-|--------10-|--chorus)-----------|-
A-|-----------|--------------------|-
E-|-----------|--------------------|-

The rest of the song is basically just repeats of the above
progressions, so just play along with the CD to get the right
pattern and structure.



Lukin by Pearl Jam

Transcribed by Paul Stipack(paul.stipack@hunterlink.net.au)

I've seen the video to this one the other day and it was Mike
who played the rhythm guitar on this one. Instead of playing a
normal root 5 D bar chord, he plays the D string open like the
tab shows.

INTRO & VERSES:
E-|--------------------------------|-
B-|--------------------------------|- 
G-|--9-9-9-9-9-7-7---9-9-9-9-9\5-5-|- 
D-|--9-9-9-9-9-7-7---9-9-9-9-9\5-5-|-  
A-|--7-7-7-7-7-0-0---7-7-7-7-7\3-3-|-  
E-|--------------------------------|- 

CHORUS:
E-|--------------|-----------|-----------|-------------|-
B-|--------------|-----------|-----------|-------------|-
G-|--9-9-9-9-9-9-|-7-7-7-7-7-|-5-5-5-5-5-|-5-5-5-5-5-5-|-
D-|--9-9-9-9-9-9-|-7-7-7-7-7-|-5-5-5-5-5-|-5-5-5-5-5-5-|-
A-|--7-7-7-7-7-7-|-5-5-5-5-5-|-3-3-3-3-3-|-3-3-3-3-3-3-|-
E-|--------------|-----------|-----------|-------------|-



Present Tense by Pearl Jam

Transcribed by Paul Stipack (paul.stipack@hunterlink.net.au)

I'm not too sure what tuning PJ use for this one, but I know
that it is something in D. Here's a tab for Drop D tuning. Comments
and corrections welcome.

VERSE:
E-|-----5--------5--------5-----3--2--0-|-
B-|-------3--------3--------3---3--3--3-|-
G-|-----------------------------2--2--2-|-
D-|--0--------------------------0--0--0-|-
A-|-----------3--------2----------------|-
D-|-------------------------------------|-

CHORUS:
E-|------------------------------------|-
B-|---3--------------6---------------3-|-
G-|---2--------------5---------------2-|-
D-|-0-0----5-5p3-3-3-3---5-5p0-0-0-0-0-|-(etc)
A-|-0-0----5-5p3-3-3-3---5-5p0-0-0-0-0-|-
D-|-0-0----5-5p3-3-3-3---5-5p0-0-0-0-0-|-

INTERLUDE:
E-|--------------------------------|-
B-|--------------------------------|-
G-|--------10----------9---------7-|-
D-|-----0-----------0---------0----|-(just play around with these notes
A-|-13----------12--------10-------|- and you'll get it right)
D-|--------------------------------|-

E-|--------------------------------|---------|-
B-|--------------------------------|---------|-
G-|-9--9--9--9----8--8--8--8-------|-7-7-7-7-|-
D-|-0--0--0--0----0--0--0--0-------|-0-0-0-0-|-
A-|-13-13-13-13---12-12-12-12-(x4)-|-5-5-5-5-|-
D-|--------------------------------|-0-0-0-0-|-

OUTRO RIFF: (Played over verse riff)
E-|-10-------10-------10-------10-------------|-
B-|----13-------13-------13-------13----------|-
G-|-------12-------12-------12-------12-(etc)-|-
D-|-------------------------------------------|-
A-|-------------------------------------------|-
D-|-------------------------------------------|-

E-|-/14--------14-------14--------14--------14-------|-
B-|-----15--------15-------15--------15--------15----|-
G-|--------14--------15-------14--------14--------14-|-
D-|--------------------------------------------------|-
A-|--------------------------------------------------|-
D-|--------------------------------------------------|-



Mankind by Pearl Jam

Transcribed by Paul Stipack (paul.stipack@hunterlink.net.au)

Here's a cool new song off 'No Code'. It's played in standard tuning, 
and I think I've got most of it right. Corrections and comments welcome.

INTRO:
E-|----------|---------|---------|---------|-
B-|----------|---------|---------|---------|-
G-|--4-4-4-4-|-9-9-9-9-|-6-6-6-6-|---------|-
D-|--4-4-4-4-|-9-9-9-9-|-6-6-6-6-|-6-6-6-6-|-
A-|--2-2-2-2-|-7-7-7-7-|-4-4-4-4-|-6-6-6-6-|-
E-|----------|---------|---------|-4-4-4-4-|-

E-|----------|---------|---------|---------|-
B-|----------|---------|---------|---------|-
G-|--4-4-4-4-|-9-9-9-9-|-6-6-----|---------|-
D-|--4-4-4-4-|-9-9-9-9-|-6-6-6-6-|-6-6-6-6-|-
A-|--2-2-2-2-|-7-7-7-7-|-4-4-6-6-|-6-6-6-6-|-
E-|----------|---------|-----4-4-|-4-4-4-4-|-


VERSE RIFF:
E-|-----------------------------|-
B-|-----------------------------|-
G-|--5-5-5-5-5-5-5-5--5-4-2-----|-
D-|--5-5-5-5-5-5-5-5--5-4-2--4--|-
A-|--3-3-3-3-3-3-3-3--3-2-0--4--|-
E-|--------------------------2--|-

1ST & 2ND CHORUS:
E-|----------|---------|---------|---------|-
B-|----------|---------|---------|---------|-
G-|--4-4-4-4-|-9-9-9-9-|-6-6-6-6-|---------|-
D-|--4-4-4-4-|-9-9-9-9-|-6-6-6-6-|-6-6-6-6-|-
A-|--2-2-2-2-|-7-7-7-7-|-4-4-4-4-|-6-6-6-6-|-
E-|----------|---------|---------|-4-4-4-4-|-

E-|----------|---------|---------|---------|-
B-|----------|---------|---------|---------|-
G-|--4-4-4-4-|-9-9-9-9-|-6-6-----|---------|-
D-|--4-4-4-4-|-9-9-9-9-|-6-6-6-6-|-6-6-6-6-|-
A-|--2-2-2-2-|-7-7-7-7-|-4-4-6-6-|-6-6-6-6-|-
E-|----------|---------|-----4-4-|-4-4-4-4-|-

E-|----------|---------|---------|---------|-
B-|----------|---------|---------|---------|-
G-|--4-4-4-4-|-9-9-9-9-|-6-6-6-6-|---------|-
D-|--4-4-4-4-|-9-9-9-9-|-6-6-6-6-|-6-6-6-6-|-
A-|--2-2-2-2-|-7-7-7-7-|-4-4-4-4-|-6-6-6-6-|-
E-|----------|---------|---------|-4-4-4-4-|-

E-|----------|---------|---------|---------|-
B-|----------|---------|---------|---------|-
G-|--4-4-4-4-|-9-9-9-9-|-6-6-6-6-|---------|-
D-|--4-4-4-4-|-9-9-9-9-|-6-6-6-6-|-7-7-7-7-|-
A-|--2-2-2-2-|-7-7-7-7-|-4-4-4-4-|-7-7-7-7-|-
E-|----------|---------|---------|-5-5-5-5-|-

SOLO: (ovet this riff)
E-|----------------------------------|-
B-|----------------------------------|-
G-|----------------------------------|-
D-|----------------------------------|-(x 2)
A-|----------------------------------|-
E-|-0--9~~-0--10~~-0--11~~-0--12~~-0-|-

E-|---------------------------------|-
B-|---------------------------------|-
G-|---------------------------------|-
D-|---------------------------------|-
A-|---------------------------------|-
E-|-0--9~~-0--10~~-0--11~~-0--12~~~-|-


PALM MUTED BIT:
E-|----------|---------|---------|---------|-
B-|----------|---------|---------|---------|-
G-|--4-4-4-4-|-9-9-9-9-|-6-6-6-6-|---------|-
D-|--4-4-4-4-|-9-9-9-9-|-6-6-6-6-|-6-6-6-6-|-
A-|--2-2-2-2-|-7-7-7-7-|-4-4-4-4-|-6-6-6-6-|-
E-|----------|---------|---------|-4-4-4-4-|-

3RD CHORUS:
E-|----------|---------|---------|---------|-
B-|----------|---------|---------|---------|-
G-|--4-4-4-4-|-9-9-9-9-|-6-6-----|---------|-
D-|--4-4-4-4-|-9-9-9-9-|-6-6-6-6-|-6-6-6-6-|-
A-|--2-2-2-2-|-7-7-7-7-|-4-4-6-6-|-6-6-6-6-|-
E-|----------|---------|-----4-4-|-4-4-4-4-|-

E-|----------|---------|---------|-
B-|----------|---------|---------|-
G-|--4-4-4-4-|-9-9-9-9-|-6-6-----|-
D-|--4-4-4-4-|-9-9-9-9-|-6-6-6-6-|-
A-|--2-2-2-2-|-7-7-7-7-|-4-4-6-6-|-
E-|----------|---------|-----4-4-|-

E-|----------|---------|---------|-
B-|----------|---------|---------|-
G-|--4-4-4-4-|-9-9-9-9-|-6-6-----|-
D-|--4-4-4-4-|-9-9-9-9-|-6-6-6-6-|-
A-|--2-2-2-2-|-7-7-7-7-|-4-4-6-6-|-
E-|----------|---------|-----4-4-|-

E-|----------|---------|---------|---------|-
B-|----------|---------|---------|---------|-
G-|--4-4-4-4-|-9-9-9-9-|-6-6-----|---------|-
D-|--4-4-4-4-|-9-9-9-9-|-6-6-6-6-|-6-6-6-6-|-
A-|--2-2-2-2-|-7-7-7-7-|-4-4-6-6-|-6-6-6-6-|-
E-|----------|---------|-----4-4-|-4-4-4-4-|-

E-|----------|---------|---------|---------|-
B-|----------|---------|---------|---------|-
G-|--4-4-4-4-|-9-9-9-9-|-6-6-----|---------|-
D-|--4-4-4-4-|-9-9-9-9-|-6-6-6-6-|-6-6-6-6-|-
A-|--2-2-2-2-|-7-7-7-7-|-4-4-6-6-|-6-6-6-6-|-
E-|----------|---------|-----4-4-|-4-4-4-4-|-

E-|----------|---------|---------|---------|-----|-
B-|----------|---------|---------|---------|-----|-
G-|--4-4-4-4-|-9-9-9-9-|-6-6-6-6-|---------|--4--|-
D-|--4-4-4-4-|-9-9-9-9-|-6-6-6-6-|-7-7-7-7-|--4--|-
A-|--2-2-2-2-|-7-7-7-7-|-4-4-4-4-|-7-7-7-7-|--2--|-
E-|----------|---------|---------|-5-5-5-5-|-----|-



I'm Open by Pearl Jam

Transcribed by Paul Stipack (paul.stipack@hunterlink.net.au)

For this song you tune down your guitar half a step to
Eb Ab Db Gb Bb Eb. This tab is basically just A guide, there
are just two chords, E and G, so just improvise with that and
it should sound pretty close. 

THE E CHORD BIT:
E-|---0------0------0------0------0------2--|-
B-|-----0------0------0------0------0---(3)-|-
G-|-------1------1------1------1------1-(2)-|-
D-|-----------------------------------------|-
A-|-2---------------------------------------|-
E-|-0---------------------------------------|-

THE G CHORD BIT:
E-|----3------3------3------3--------7--|-
B-|------3------3------3------3-----(8)-|-
G-|--------0------0------0------0---(7)-|-
D-|-------------------------------------|-
A-|-------------------------------------|-
E-|-3-----------------------------------|-



Around The Bend by Pearl Jam

Transcribed by Paul Stipack (paul.stipack@hunterlink.net.au)

Here's the sweet and simple ending song off of No Code. Only two
progressions in the song, play along with the CD to get the structure
and timing correct. Enjoy!

CHORD PROGRESSION 1:
E-|-0----0--0--0--0--0-|-0-0h2--3-2-0-|-
B-|-7----7--5--2--5--3-|-3-3----3-3-3-|-
G-|-6----6--4--0--4--2-|-2-2----2-2-2-|-
D-|-7----7--5--2--5--0-|-0-0----0-0-0-|-
A-|-0----0--0--0--0--0-|--------------|-
E-|--------------------|--------------|-

CHORD PROGRESSION 2:
    Bb  B   Bb
E-|------------|-
B-|------------|-
G-|-3---4---3--|-
D-|-3---4---3--|-
A-|-1---2---1--|-
E-|------------|-




Comments