Pearl Jam - Mankind Chords & Tabs

 

Mankind Chords & Tabs

Pearl Jam Chords & Tabs

Version: 2 Type: Bass Tab 0 ratings
1 star 2 stars 3 stars 4 stars 5 stars
comments

Mankind Bass Tab

			Pearl Jam-Mankind 
intro

G ------------------------------------------------------------|
D ------------------------------------------------------------|
A -------------------------7--7--7--7--7--7--7--7--4--4--4----|
E -7--7--7--7--7--7--7--7-------------------------------------|
                                          
G ------------------------------------------|
D ------------------------------------------|
A -4--4--4--4--4----------------------------|
E ----------------4--4--4--4--4--4--4--4----|
[ Tab from: http://www.guitartabs.cc/tabs/p/pearl_jam/mankind_btab_ver_2.html ]
Verse
                                       
G ---------------------------------------|
D ---------------------------------------|
A -3--3--3--3--3--3--3--3--3--2----------|
E -------------------------------3--2----|
   You'll be
                                      
 Chorus
           It's all just inadvertent              imitation
G ------------------------------------------------------------|
D ------------------------------------------------------------|
A -------------------------7--7--7--7--7--7--7--7--4--4--4----|
E -7--7--7--7--7--7--7--7-------------------------------------|
                                        
                 and I don't mean mine
G ------------------------------------------|
D ------------------------------------------|
A -4--4--4--4--4----------------------------|
E ----------------4--4--4--4--4--4--4--4----|
            It's all   a-cross this nation
G ------------------------------------------------------------|
D ------------------------------------------------------------|
A -------------------------7--7--7--7--7--7--7--7--4--4--4--4-|
E -7--7--7--7--7--7--7--7-------------------------------------|

G -----------------------------|
D -----------------------------|
A -----------------------------|
E ---4--4--4--4--4--4--4--4----|

G ------------------------------------------------------------|
D ------------------------------------------------------------|
A -------------------------7--7--7--7--7--7--7--7--4--4--4----|
E -7--7--7--7--7--7--7--7-------------------------------------|
     
G ------------------------------------------|
D ------------------------------------------|
A -4--4--4--4--4----------------------------|
E ----------------5--5--5--5--5--5--5-------|
Interlude (played twice)
                                        
G ------------------------------------------|
D ------------------------------------------|
A -4-----4--5-----5--6-----6--7-------------|
E ----0--------0--------0--------0----------|

G ---------------------------------------------|
D ---------------------------------------------|
A -7--4-----4--5-----5--6-----6--7-------------|
E -------0--------0--------0--------0----------|






Comments