Pearl Jam - Lukin Chords & Tabs

 

Lukin Chords & Tabs

Pearl Jam Chords & Tabs

Version: 1 Type: Tab 0 ratings
1 star 2 stars 3 stars 4 stars 5 stars
comments

Lukin Tab

title: lukin
artist: pearl jam
album: no code
tabbed by: sean carver

GUITAR 1
RIFF 1:
E----------------------------------
B----------------------------------
G-9-9-9-9-9---7-7--9-9-9-9-9---5-5-
D-9-9-9-9-9---7-7--9-9-9-9-9---5-5-
A-7-7-7-7-7---5-5--7-7-7-7-7---3-3-
E-7-7-7-7-7---5-5--7-7-7-7-7---3-3-
[ Tab from: http://www.guitartabs.cc/tabs/p/pearl_jam/lukin_tab.html ]
GUITAR 2
RIFF 1:
E-------------7-
B-5-5-5-5-5-5---
G---------------
D---------------
A---------------
E---------------

CHORUS:
E---------------------------------------------------
B---------------------------------------------------
G-9-x-9-9-9-9-9--7-x-7-7-7-7-7--5-x-5-5-x-5-5-5-/-7-
D-9-x-9-9-9-9-9--7-x-7-7-7-7-7--5-x-5-5-x-5-5-5-/-7-
A-7-x-7-7-7-7-7--5-x-5-5-5-5-5--3-x-3-3-x-3-3-3-/-5-
E---------------------------------------------------

this is a really easy song.....
Comments