Pearl Jam - Low Light Chords & Tabs

 

Low Light Chords & Tabs

Pearl Jam Chords & Tabs

Version: 2 Type: Bass Tab 0 ratings
1 star 2 stars 3 stars 4 stars 5 stars
comments

Low Light Bass Tab

Pearl Jam - Low Light
Tabbed by Fábio R.

This is my version of Low Light, the version of Mark Linwood is incomplete.
Normal tuning (EADG)

Intro:
|------------------------|
|------------------------|
|-3-2--------------------|   (2x)
|-----3-1-3-33-3-33-3-33-|

|------------------------|
|------------------------|
|-3-2----------3-33------|
|-----3-1-3-33------3-33-|

Verse:
|------------------------|----------------------|---------------------------|
|------------------------|----------------------|---------------------------|
|-3-2--------------------|-3-2------------------|-3-2--------3-33-----------| 
|-----3-1-3-33-3-33-3-33-|-----1-3-33-3-33-3-33-|-----1-3-33------3-33-3-33-|

Chorus:
|-----------|-----------|-----------|-----------|-----------|-----------|
|-----------|-----------|-----------|-----------|-----------|-----------|
|-----------|-----------|-----------|-----------|-----------|-----------|
|-5-55-5-55-|-3-33-3-33-|-5-55-5-55-|-3-33-3-33-|-5-55-5-55-|-7-77-7-77-|

|---------------|
|---------------|
|---------------|
|-3-2-0-2-3-2-5-|

Verse 2:
|------------------------|----------------------|----------------------|
|------------------------|----------------------|----------------------|
|-3-2--------------------|-3-2------------------|-3-2--------3-33------|  (2x)
|-----3-1-3-33-3-33-3-33-|-----1-3-33-3-33-3-33-|-----1-3-33------3-33-| 
[ Tab from: http://www.guitartabs.cc/tabs/p/pearl_jam/low_light_btab_ver_2.html ]
Chorus 2:
|-----------|-----------|-----------|-----------|-----------|-----------|
|-----------|-----------|-----------|-----------|-----------|-----------|
|-----------|-----------|-----------|-----------|-----------|-----------|
|-5-55-5-55-|-3-33-3-33-|-5-55-5-55-|-3-33-3-33-|-5-55-5-55-|-7-77-7-77-|

|---------------|
|---------------|
|---------------|
|-3-2-0-2-3-2-5-|

Guitar Solo:
|------------------------|
|------------------------|
|-3-2--------------------|   (2x)
|-----3-1-3-33-3-33-3-33-|

|------------------------|---------|
|------------------------|---------|
|-3-2----------3-33------|-3-2-----|
|-----3-1-3-33------3-33-|-----1-3-|

Chorus 3:
|-----------|-----------|-----------|-----------|-----------|-----------|-----------|-----------|
|-----------|-----------|-----------|-----------|-----------|-----------|-----------|-----------|
|-----------|-----------|-----------|-----------|-----------|-----------|-----------|-----------|
|-5-55-5-55-|-3-33-3-33-|-5-55-5-55-|-3-33-3-33-|-5-55-5-55-|-7-77-7-77-|-7-77-7-77-|-7-77-7-77-|

|-----------|-----------|
|-----------|-----------|
|-----------|-----------|
|-5-55-5-55-|-3-33-3-33-|

|-----------------------|
|-----------------------|
|-----------------------|
|-3-2-0-2-3-2-0-2-3-2-5-|

Outro:
|-------------|
|-------------|
|-0-3h5-3h5-5-|
|-------------| (I'm not sure about this)

That's it! Have Fun!
for comments send to: dragonz@terra.com.br
Comments