Pearl Jam - Love Boat Captain Chords & Tabs

 

Love Boat Captain Chords & Tabs

Pearl Jam Chords & Tabs

Version: 1 Type: Tab 1 rating
1 star 2 stars 3 stars 4 stars 5 stars
comments

Love Boat Captain Tab

Artist: pearl jam
Title: love boat captain
Album: riot act
Transcribed by: rafael salazar

                                                             
verse:
------------------------------------------------------------------------------
------------------------------------------------------------------------------
-0---0-0---0-0-0-------------4---4----2---------------------------------------
-2---2-2---1-1-1-------------5---5----3---------------------------------------
-3---3-3---3-3-3-------------5---5----3---------------------------------------
-----------------------------3---3----1---------------------------------------
                                                                              
[ Tab from: http://www.guitartabs.cc/tabs/p/pearl_jam/love_boat_captain_tab.html ]
------------------------------------------------------------------------------
-5---------4------------------------------------------------------------------
-5---------5------------------------------------------------------------------
------------------------------------------------------------------------------
-3---------3------------------------------------------------------------------
------------------------------------------------------------------------------
                                                                              
prechorus:
------------------------------------------------------------------------------
---9---8--7-------------------------------------------------------------------
---9---7--7---------------0--------------2------------------------------------
-9--------------------------0---0------3--------------------------------------
-7-----5--5-------------------2------3----------------------------------------
-----------------------------------1------------------------------------------
 repeat                                                                       

chorus:
------------------------------------------------------------------------------
------------------------------------------------------------------------------
--6-----5----4------------------------------------------------3-3-3-----------
--7-----5----5--------------------------0-2---2------0-2---2--3-3-3-----------
--7-----3----5------------------------3-----3------3-----3----1-1-1-----------
--5----------3----------------------1------------1----------------------------
  repeat                            repeat                                    

solo:
------------------------------------------------------------------------------
--------13----------13----13-15b-13-------------------------------------------
--12h14----14-12h14----14-----------14-12-----9--7--5--9--7---12-14-14vvb-----
------------------------------------------14----------------------------------
------------------------------------------------------------------------------
------------------------------------------------------------------------------
                                                                              

------------------------------------------------------------------------------
--13-15br-13h15-13---13--13---------------------------------------------------
------------------------------------------------------------------------------
------------------------------------------------------------------------------
------------------------------------------------------------------------------
------------------------------------------------------------------------------
                                                                              

Comments