Pearl Jam - Leaving Here Chords & Tabs

 

Leaving Here Chords & Tabs

Pearl Jam Chords & Tabs

Version: 3 Type: Tab 0 ratings
1 star 2 stars 3 stars 4 stars 5 stars
comments

Leaving Here Tab

Leaving here by PEARL JAM
you can found it in the new album "lost Dogs"
[ Tab from: http://www.guitartabs.cc/tabs/p/pearl_jam/leaving_here_tab_ver_3.html ]
Normal tuning
Intro
e|-------------------|
b|------------------*|
g|-------------------|
D|---6-9-10/11-11-11-|
A|-0-4-7--8/9--9--9-*|
E|-------------------|
              3 times

e|----------------|------------\
b|-11-11-11-11---*|------------|
g|-11-11-11-11----|------------|
D|-11-11-11-11----|------------|-Use it for chorus
A|*11-9--9--9--9-*|-11111111---|
E|--9-------------|-9-9-9-9----/
          3 times
Comments