Pearl Jam - Jeremy Chords & Tabs

 

Jeremy Chords & Tabs

Pearl Jam Chords & Tabs

Version: 5 Type: Tab 0 ratings
1 star 2 stars 3 stars 4 stars 5 stars
comments

Jeremy Tab

i was disgusted that no one had a good tab of this on the site so here is a good one.


ll 1
1st. Guitar
e|----------------------------------------------------------------------------------|
B|----------------------------------------------------------------------------------|
G|----------------------------------------------------------------------------------|
D|----------7---5------------------7---5-----------------7---5----------------------|
A|--0-5h7-0---0------------0-5h7-0---0-----------0-5h7-0---0------------------------|
E|----------------------------------------------------------------------------------|
 |2nd. guitar
e|----------------------------------------------------------------------------------|
B|----------------------------------------------------------------------------------|
G|--------------------*5-----------------*7--------------------------*5--*7---------|
D|----------------*5-------------------------*7------------------*5----------*7-----|
A|----------------------------------------------------------------------------------|
E|----------------------------------------------------------------------------------|
 |Bass
G|----------------------------------------------------------------------------------|
D|----------7---5------------------7---5-----------------7---5----------------------|
A|--0-5h7-0---0------------0-5h7-0---0-----------0-5h7-0---0------------------------|
E|----------------------------------------------------------------------------------|

1st. guitar            End Fill 1  Fill 2
e|--------------------------------|  ------------------------------------0---0-0----|
B|--------------------------------|  ------------------------------------5---5-5----|
G|--------------------------------|  ------------------------------------6---6-6----|
D|----------7---5-5-5-5-5-5-5-5-5-|  ---------7---5------------5---7-----7---7-7----|
A|--0-5h7-0---0-------------------|  -0-5h7-0---0------0-5h7-0---0------------------|
E|--------------------------------|  -----------------------------------------------|
 |Bass                            | BFill
G|--------------------------------|  G|---------------------------------------------|
D|----------7---5-5-5-5-5-5-5-5-5-|  D|---------7-------5---------------------------|
A|--0-5h7-0---0-------------------|  A|-0-5h7-0---0h5h7-----------------------------|
E|--------------------------------|  E|---------------------------------------------|

Fill 3                                 Fill 4                 Fill 5
  Dist. 1st. guitar                    2nd. Guitar            2nd. guitar
e|-----------------------------------| -----------12--------| -------12-------------|
B|-----------------------------------| --12h14p12----12-10--| ----14----14----------|
G|---------9---7---7-----------7---9-| ---------------------| -14----------14-------|
D|---------7---7---5-----------7---7-| ---------------------| ----------------------|
A|-0-5h7-0---0---0-----0-5h7-0---0---| ---------------------| ----------------------|
E|-----------------------------------| ---------------------| ----------------------|
 |Bass                               |
G|-----------------------------------|
D|-----------------------------------|
A|-----------------------------------|
E|-----------------------------------|
[ Tab from: http://www.guitartabs.cc/tabs/p/pearl_jam/jeremy_tab_ver_5.html ]
Fill 6
  1st. guitar
e|----------------------------------------------------------------------------------|
B|----------------------------------------------------------------------------------|
G|----------------------------------------------------------------------------------|
D|-----------7---10-------2-----------------7--10------2----------------------------|
A|-0-5h7-0-------8--------0--------0-5h7-0-----8-------0----------------------------|
E|----------------------------------------------------------------------------------|
 |Bass
G|----------------------------------------------------------------------------------|
D|-----------7------------------------------7---------------------------------------|
A|-0-5h7-0-------8-5-7-8--0--------0-5h7-0-----8-5-7-3-0----------------------------|
E|----------------------------------------------------------------------------------|

Fill 7

e|----------------------------------------------------------------------------------|
B|----------------------------------------------------------------------------------|
G|----------------------------------------------------------------------------------|
D|---------7-------5---------7-------5----------------------------------------------|
A|-0-5h7-0---0h5h7---0-5h7-0---0h5h7------------------------------------------------|
E|----------------------------------------------------------------------------------|

Fill 8

e|---------------------------------------|
B|---------------------------------------|
G|-14-14-14-14-14-14-14-14-14-14---------|
D|---------------------------------------|
A|-12-12-12-12-12-12-12-12-12-12---------|
E|---------------------------------------|


Intro: play Fill 1 along with the bass doing the same figure...

1st. verse (play Fill 2 and BFill through it)

 At home drawing pictures of mountain tops, with him on top lemon yellow sun..
 arms raised in a V, the dead lay in pools of marrom below..

Prechorus: play Fill 3 and Fill 4 where it should be (listen the song for that..)

 Daddy didnt give attention to the fact that mommy didnt care
 king Jeremy the wicked oh ruled his world...

Chorus: Play Fill 6 and Fill 4 and Fill 5 where it should be (listen the song for it...)
 Jeremy spoke in class today
 Jeremy spoke in class today

2nd. verse play Fill 2
 Clearly I remember picking on the boy, seemed a harmless little f*ck
 Uhh but we unleashed a lion, gnashed his teeth and bit the recess ladys breasts
 how could I forget, and he hit me with a surprise left
 mmm my jaw left hurting, oh drop wide open
 just like the day, oh like the day I've heard...

Prechorus: play Fill 3 and Fill 4 where it should be...

 Daddy didnt give affection and the boy was something that mommy wouldnt ware
 king Jeremy the wicked oh ruled his world...

chorus: play Fill 6 and Fill 4 and Fill 5 where it should be...
 Jeremy spoke in class today
 Jeremy spoke in class today
 Jeremy spoke in class todayyyyyy

interlude (play Fill 6 and BFill)
 Try to forgot this (try to forgot this)
 Try to erase this (try to erase this)
 from the black board (play Fill 5)

*****the uuuuooooooohhohhhooohhhhhhh part is in F G A and Fill 8

outro
  1st. guitar
e|--------------------------------------------------------------------------|
B|--------------------------------------------------------------------------|
G|------12------11--------7------9--------4-----5-------4-----5-------------|
D|---14------12----12---9-----10---10---5-----7---7---5-----7---7-----------|
A|-0-------0----------0-----0---------0-----0-------0-----0-----------------|
E|--------------------------------------------------------------------------|
 |Bass
G|------12------11--------7------9--------4-----5-------4-----5-------------|
D|---14------12----12---9-----10---10---5-----7---7---5-----7---7-----------|
A|-0-------0----------0-----0---------0-----0-------0-----0-------0---------|
E|--------------------------------------------------------------------------|


e|----------------------------------------------------------------------------|
B|----------------------------------------------------------------------------|
G|------12------11--------7------9--------4-----5-------4---------*5----------|
D|---14------12----12---9-----10---10---5-----7---7---5------*7---------------|
A|-0-------0----------0-----0---------0-----0-------0-----0-------------------|

E|--------------------------------------------------------------------------|
G|------12------11--------7------9--------4-----5-------4---------*5--------|
D|---14------12----12---9-----10---10---5-----7---7---5------*7-------------|
A|-0-------0----------0-----0---------0-----0-------0-----0-----------------|
E|--------------------------------------------------------------------------|
Comments