Pearl Jam - Jeremy Chords & Tabs

 

Jeremy Chords & Tabs

Pearl Jam Chords & Tabs

Version: 2 Type: Tab 0 ratings
1 star 2 stars 3 stars 4 stars 5 stars
comments

Jeremy Tab

   
Sorry, but i dont have the chourus. That kinda sucks but hey, deal with it!

Standard Tuning (E,A,D,G,B,E)

  h= hammer-on
<#>= natural harmonic
  B= bend
(#)= bend to..

INTRO

e-| -----------------------------| |
B-| -----------------------------|&|
G-| ----------------<7>----------| | <--- Repeat 3x
D-| ---------7---5------<7>------| | 
A-| -0-5h7-0---0-----------------|&|
E-| -----------------------------| |
[ Tab from: http://www.guitartabs.cc/tabs/p/pearl_jam/jeremy_tab_ver_2.html ]
e-| ----------------------------------|
B-| ----------------------------------|
G-| ----------------------------------| <---- Fourth time
D-| ---------7---5--5-5-5-5-5-5-5-5---|
A-| -0-5h7-0---0----------------------|
E-| ----------------------------------|

VERSE RIFF

e-| ----------------------------| |
B-| ----------------------------|&|
G-| ----------------------------| |
D-| ---------7---------5b(6)----| |
A-| -0-5h7-0---0--5h7-----------|&|
E-| ----------------------------| |

!~!~!~BoB~!~!~!
Roymoose@aol.com
Comments