Pearl Jam - Jeremy Chords & Tabs

 

Jeremy Chords & Tabs

Pearl Jam Chords & Tabs

Version: 1 Type: Bass Tab 1 rating
1 star 2 stars 3 stars 4 stars 5 stars
comments

Jeremy Bass Tab

   
From: Glen Norman Pavan 

artist:  Pearl Jam
title:  Jeremy
album:  Ten
key:  D
tuning:  standard E A D G


intro

                      NH NH                  NH   NH
G------------------------12-----------------------------
D-----------7---5-----12-------------7---5----12--------
A--0--5/7-0---0--------------0-5/7-0---0----------12----
E-------------------------------------------------------

                     NH  NH  
G---------------------------------------------------------
D----------7---5---------12--------------7---5-5-5-5-5-5--
A--0-5/7-0---0-------12----------0-5/7-0---0---------------
E---------------------------------------------------------


verse

G---------------------
D----------7-------5--
A--0-5/7-0---0-5/7----  Ament alters this riff in practically every measure 
E---------------------  but this is the hands-down riff for the verse


chorus
[ Tab from: http://www.guitartabs.cc/tabs/p/pearl_jam/jeremy_btab.html ]
G-----------------------------------------------------
D---------------------------------7-7-7-7--------------
A-8-8-8-8-8-8-8-8---5-5-5-7-7-7-7-0-0-0-0-----0-5/7-0--    repeat
E------------------------------------------------------
  Jeremy spoke in        class   today


verse

chorus

verse/interlude

chorus

outro

A-----------------------------------------------------
E-1-1-1-1-1-1-1-1-3-3-3-3-3-3-3-3-5-5-5-5-5-5-5-5-5-5-5-5-5-5-5-5----

    repeat this as necessary; fun to fool around on every fourth measure 
    in Amaj


G------12------11--------7------9--------4-----5-------4-----5----
D---14------12----12---9-----10---10---5-----7-------5-----7---7--
A-0-------0----------0-----0---------0-----0-----0-0-----0--------
E-----------------------------------------------------------------

                                                         NHNH
G------12------11--------7------9--------4-----0-----4-----5---7---
D---14------12----12---9-----10---10---5-----7-----5-----5-----0---
A-0-------0----------0-----0---------0-----0-----0-----0-------5---
E------------------------------------------------------------------


questions comments bad advice to senomar@bach.udel.edu
                  -I'm here, I'm queer, I play 5-string bass



Comments