Pearl Jam - Insignificance Chords & Tabs

 

Insignificance Chords & Tabs

Pearl Jam Chords & Tabs

Version: 1 Type: Tab 0 ratings
1 star 2 stars 3 stars 4 stars 5 stars
comments

Insignificance Tab

   
"Insignificance"		
by Pearl Jam off of their 2000 release "Binaural"
Transcribed by Matt Clarke  (clarkenheimer@hotmail.com)

One of my favoites off "Binaural."  It might not be absolutely correct
but it's going in the right direction.  
A good start if you're willing to expand on it.


Intro:  (played 3 times)

It's just basic chords:  A, F#, E, C


Verse:
      A            D     Eb    E
--------------------------------------------------
--------------------------------------------------
----------6(b)6-----------------------------------
-------------------7------8----9------------------
-----7-7---------5---5--6---6--7------------------
-----5-5------------------------------------------


Bridge:
     C                                E
-----------------------------------------------------
-----------------------------------------------------
-----------------------------------------------------
-----------9-9---------9-9---------9--9-9-9-9-9-9-9-9
----10-10-------10-10-------10-10-----7-7-7-7-7-7-7-7  etc.
-----8--8--------8--8--------8--8--------------------
[ Tab from: http://www.guitartabs.cc/tabs/p/pearl_jam/insignificance_tab.html ]
     C                                E
-----------------------------------------------------
-----------------------------------------------------
-----------------------------------------------------
-----------9-9---------9-9---------9--9-9-9-9-9-9-9-9
----10-10-------10-10-------10-10-----7-7-7-7-7-7-7-7  etc.
-----8--8--------8--8--------8--8--------------------


     C                                E
-----------------------------------------------------
-----------------------------------------------------
-----------------------------------------------------
-----------9-9---------9-9---------9--9-9-9-9-9-9-9-9
----10-10-------10-10-------10-10-----7-7-7-7-7-7-7-7  etc.
-----8--8--------8--8--------8--8--------------------


    F
-----------------------------------------------------
-----------------------------------------------------
-----------------------------------------------------
---10-10-10-10-10-10-10-10-10-10-10-10-10-10-10-10---
----8--8--8--8--8--8--8--8--8--8--8--8--8--8--8--8---
-----------------------------------------------------


     C                                F
-------------------------------------------------------
-------------------------------------------------------
-------------------------------------------------------
-----------9-9---------9-9---------9--10-10-10-10-10-10
----10-10-------10-10-------10-10------8--8--8--8--8--8 etc.
-----8--8--------8--8--------8--8----------------------


Chorus:  Intro Chords repeated

         A, F#, E, C



There is also an interlude in the song but we'll save that for
later.  These are the basic parts. It's a good start. 
Enjoy.
Comments