Pearl Jam - Indifference Chords & Tabs

 

Indifference Chords & Tabs

Pearl Jam Chords & Tabs

Version: 1 Type: Tab 0 ratings
1 star 2 stars 3 stars 4 stars 5 stars
comments

Indifference Tab

#----------------------------------PLEASE NOTE--------------------------------#
#This file is the author's own work and represents their interpretation of the#
#song. You may only use this file for private study, scholarship, or research.#
#-----------------------------------------------------------------------------#
#-- File created with Instab - http://www.pconline.com/~smcarey/instab.html --#
#-----------------------------------------------------------------------------#

Author/Artist: Pearl Jam
Title: Indifference
Album: Vs.
Transcribed by: Rick S.
Email: ricksloukji@hotmail.com

Beautiful closer.
[ Tab from: http://www.guitartabs.cc/tabs/p/pearl_jam/indifference_tab.html ]
------------------------------------------------------------------------------
-17-15------------------------------------------------------------------------
-------16-14------------------------------------------------------------------
-------------16-17-17h19-17r--------------------------------------------------
------------------------------------------------------------------------------
------------------------------------------------------------------------------
 h indicates hammer on, r indicates "let ring"                                

-------------15--------------------------------15-----------------------------
----17-15-----------17-15-15----------17-15-----------17-15----------15-17----
-16-------16----16-----------16----16-------16-----16-------16-16-16----------
------------------------------------------------------------------------------
------------------------------------------------------------------------------
------------------------------------------------------------------------------
 fool around here throughout                                                  

-12----12----12----12----12----12---------------------------------------------
----12----12----12----12----12----12------------------------------------------
------------------------------------------------------------------------------
------------------------------------------------------------------------------
------------------------------------------------------------------------------
------------------------------------------------------------------------------
 finsih on this, improv with the notes                                        

Comments