Pearl Jam - In My Tree Chords & Tabs

 

In My Tree Chords & Tabs

Pearl Jam Chords & Tabs

Version: 4 Type: Tab 0 ratings
1 star 2 stars 3 stars 4 stars 5 stars
comments

In My Tree Tab

   
#----------------------------------PLEASE NOTE--------------------------------#
#This file is the author's own work and represents their interpretation of the#
#song. You may only use this file for private study, scholarship, or research.#
#-----------------------------------------------------------------------------#
#-- File created with Instab - http://www.pconline.com/~smcarey/instab.html --#
#-----------------------------------------------------------------------------#

Author/Artist: Pearl Jam
Title: In My Tree
Album: No Code
Transcribed by: Evan Cowan
Email: evan@giventowail.com

It's very important to get down the strumming in all of the riffs and mesh with
the drum beat

-|-----------------------|-0----------------|---------------------------------|
-|-----------------------|-0----------------|---------------------------------|
-|-----------------------|-1----------------|---------------------------------|
-|-----------------------|-2----------------|---------------------------------|
-|-----------------------|-2----------------|---------------------------------|
-|-----------------------|-0----------------|---------------------------------|
 Drum/Bass intro          w/ delay/echo  2x

-|---------------------------------------------------|------------------------|
-|---------------------------------------------------|------------------------|
-|---------------------------------------------------|------------------------|
-|-9--9--9-9--9-9--9-9-9-9--9--9--9-9--9-9--9-9-9-9--|------------------------|
-|-7--7--7-7--7-7--7-7-7-7--6--6--6-6--6-6--6-6-6-6--|------------------------|
-|-0--0--0-0--0-0--0-0-0-0--0--0--0-0--0-0--0-0-0-0--|------------------------|
  Verse, G1+G2

-|-----------------------------------------------------|----------------------|
-|-----------------------------------------------------|----------------------|
-|-9--9--9-9--9-9-9-9-9-9-9--9--9--9-9--9-9-9-9-9-9-9--|----------------------|
-|-7--7--7-7--7-7-7-7-7-7-7--9--9--9-9--9-9-9-9-9-9-9--|----------------------|
-|-0--0--0-0--0-0-0-0-0-0-0--0--0--0-0--0-0-0-0-0-0-0--|----------------------|
-|-----------------------------------------------------|----------------------|


-|---------------------------------------------------|------------------------|
-|---------------------------------------------------|------------------------|
-|---------------------------------------------------|------------------------|
-|-9--9--9-9--9-9--9-9-9-9--9--9--9-9--9-9--9-9-9-9--|------------------------|
-|-7--7--7-7--7-7--7-7-7-7--6--6--6-6--6-6--6-6-6-6--|------------------------|
-|-0--0--0-0--0-0--0-0-0-0--0--0--0-0--0-0--0-0-0-0--|------------------------|


-|-----------------------------------------------------|----------------------|
-|---------------------------9--9--9-9--9-9-9-9-9-9-9--|----------------------|
-|-9--9--9-9--9-9-9-9-9-9-9--9--9--9-9--9-9-9-9-9-9-9--|----------------------|
-|-7--7--7-7--7-7-7-7-7-7-7--9--9--9-9--9-9-9-9-9-9-9--|----------------------|
-|-0--0--0-0--0-0-0-0-0-0-0--0--0--0-0--0-0-0-0-0-0-0--|----------------------|
-|-----------------------------------------------------|----------------------|


-|---------------------------------------------------|------------------------|
-|---------------------------------------------------|------------------------|
-|---------------------------------------------------|------------------------|
-|-9--9--9-9--9-9--9-9-9-9--9--9--9-9--9-9--9-9-9-9--|------------------------|
-|-7--7--7-7--7-7--7-7-7-7--6--6--6-6--6-6--6-6-6-6--|------------------------|
-|-0--0--0-0--0-0--0-0-0-0--0--0--0-0--0-0--0-0-0-0--|------------------------|


-|-----------------------------------------------------|----------------------|
-|-----------------------------------------------------|----------------------|
-|-9--9--9-9--9-9-9-9-9-9-9--9--9--9-9--9-9-9-9-9-9-9--|----------------------|
-|-7--7--7-7--7-7-7-7-7-7-7--9--9--9-9--9-9-9-9-9-9-9--|----------------------|
-|-0--0--0-0--0-0-0-0-0-0-0--0--0--0-0--0-0-0-0-0-0-0--|----------------------|
-|-----------------------------------------------------|----------------------|


-|---------------------------------------------------|------------------------|
-|---------------------------------------------------|------------------------|
-|---------------------------------------------------|------------------------|
-|-9--9--9-9--9-9--9-9-9-9--9--9--9-9--9-9--9-9-9-9--|------------------------|
-|-7--7--7-7--7-7--7-7-7-7--6--6--6-6--6-6--6-6-6-6--|------------------------|
-|-0--0--0-0--0-0--0-0-0-0--0--0--0-0--0-0--0-0-0-0--|------------------------|


-|-----------------------------------------------------|----------------------|
-|-----------------------------------------------------|----------------------|
-|-9--9--9-9--9-9-9-9-9-9-9--9--9--9-9--9-9-9-9-9-9-9--|----------------------|
-|-7--7--7-7--7-7-7-7-7-7-7--9--9--9-9--9-9-9-9-9-9-9--|----------------------|
-|-0--0--0-0--0-0-0-0-0-0-0--0--0--0-0--0-0-0-0-0-0-0--|----------------------|
-|-----------------------------------------------------|----------------------|


-|-3----0----0----|-3----5------------------------------|-3--5-----|-----|----|
-|-3----2----0----|-3----5------------------------------|-3--5-----|-----|----|
-|-0----2----1----|-4----6------------------------------|-4--6-----|-----|----|
-|-0----2----2----|-5----7----9--9--9-9--9-9-9-9-9-9-9--|-5--7--9--|-----|----|
-|-2----0----2----|-5----7----7--7--7-7--7-7-7-7-7-7-7--|-5--7--7--|-----|----|
-|-3---------0----|-3----5----0--0--0-0--0-0-0-0-0-0-0--|-3--5--0--|--0--|----|
 Chorus, G1     4x Chorus, G2+G3                      3x

-|---------------------------------------|------------------------------------|
-|---------------------------------------|------------------------------------|
-|----10------------------10----------7--|------------------------------------|
-|-9--10--10---9--7----9--10--10---9--7--|------------------------------------|
-|-9---8--10---9--7----9---8--10---9--5--|------------------------------------|
-|-7---8---8---7--5----7---8---8---7--5--|------------------------------------|
 Bridge, G1                            2x

-|---------------------------------------------------|------------------------|
-|---------------------------------------------------|------------------------|
-|---------------------------------------------------|------------------------|
-|-9--9--9-9--9-9--9-9-9-9--9--9--9-9--9-9--9-9-9-9--|------------------------|
-|-7--7--7-7--7-7--7-7-7-7--6--6--6-6--6-6--6-6-6-6--|------------------------|
-|-0--0--0-0--0-0--0-0-0-0--0--0--0-0--0-0--0-0-0-0--|------------------------|
 Verse, G1+G2

-|-----------------------------------------------------|----------------------|
-|-9--9--9-9--9-9-9-9-9-9-9--9--9--9-9--9-9-9-9-9-9-9--|----------------------|
-|-9--9--9-9--9-9-9-9-9-9-9--9--9--9-9--9-9-9-9-9-9-9--|----------------------|
-|-7--7--7-7--7-7-7-7-7-7-7--9--9--9-9--9-9-9-9-9-9-9--|----------------------|
-|-0--0--0-0--0-0-0-0-0-0-0--0--0--0-0--0-0-0-0-0-0-0--|----------------------|
-|-----------------------------------------------------|----------------------|


-|---------------------------------------------------|------------------------|
-|---------------------------------------------------|------------------------|
-|---------------------------------------------------|------------------------|
-|-9--9--9-9--9-9--9-9-9-9--9--9--9-9--9-9--9-9-9-9--|------------------------|
-|-7--7--7-7--7-7--7-7-7-7--6--6--6-6--6-6--6-6-6-6--|------------------------|
-|-0--0--0-0--0-0--0-0-0-0--0--0--0-0--0-0--0-0-0-0--|------------------------|

[ Tab from: http://www.guitartabs.cc/tabs/p/pearl_jam/in_my_tree_tab_ver_4.html ]
-|-----------------------------------------------------|----------------------|
-|---------------------------9--9--9-9--9-9-9-9-9-9-9--|----------------------|
-|-9--9--9-9--9-9-9-9-9-9-9--9--9--9-9--9-9-9-9-9-9-9--|----------------------|
-|-7--7--7-7--7-7-7-7-7-7-7--9--9--9-9--9-9-9-9-9-9-9--|----------------------|
-|-0--0--0-0--0-0-0-0-0-0-0--0--0--0-0--0-0-0-0-0-0-0--|----------------------|
-|-----------------------------------------------------|----------------------|


-|---------------------------------------------------|------------------------|
-|---------------------------------------------------|------------------------|
-|---------------------------------------------------|------------------------|
-|-9--9--9-9--9-9--9-9-9-9--9--9--9-9--9-9--9-9-9-9--|------------------------|
-|-7--7--7-7--7-7--7-7-7-7--6--6--6-6--6-6--6-6-6-6--|------------------------|
-|-0--0--0-0--0-0--0-0-0-0--0--0--0-0--0-0--0-0-0-0--|------------------------|


-|-----------------------------------------------------|----------------------|
-|-----------------------------------------------------|----------------------|
-|-9--9--9-9--9-9-9-9-9-9-9--9--9--9-9--9-9-9-9-9-9-9--|----------------------|
-|-7--7--7-7--7-7-7-7-7-7-7--9--9--9-9--9-9-9-9-9-9-9--|----------------------|
-|-0--0--0-0--0-0-0-0-0-0-0--0--0--0-0--0-0-0-0-0-0-0--|----------------------|
-|-----------------------------------------------------|----------------------|


-|---------------------------------------------------|------------------------|
-|---------------------------------------------------|------------------------|
-|---------------------------------------------------|------------------------|
-|-9--9--9-9--9-9--9-9-9-9--9--9--9-9--9-9--9-9-9-9--|------------------------|
-|-7--7--7-7--7-7--7-7-7-7--6--6--6-6--6-6--6-6-6-6--|------------------------|
-|-0--0--0-0--0-0--0-0-0-0--0--0--0-0--0-0--0-0-0-0--|------------------------|


-|-----------------------------------------------------|----------------------|
-|-----------------------------------------------------|----------------------|
-|-9--9--9-9--9-9-9-9-9-9-9--9--9--9-9--9-9-9-9-9-9-9--|----------------------|
-|-7--7--7-7--7-7-7-7-7-7-7--9--9--9-9--9-9-9-9-9-9-9--|----------------------|
-|-0--0--0-0--0-0-0-0-0-0-0--0--0--0-0--0-0-0-0-0-0-0--|----------------------|
-|-----------------------------------------------------|----------------------|


-|----|------------|-16-----14-----12-----14-16-----14-----12----17---12-14--|
-|----|-15----14---|---------------------------------------------------------|
-|----|------------|---------------------------------------------------------|
-|----|------------|---------------------------------------------------------|
-|----|------------|---------------------------------------------------------|
-|----|------------|---------------------------------------------------------|
 Verse, G3

-|-16-----14-----12--|-3----0----0--------------|-3----0----0----3----0----0-|
-|-------------------|-3----2----0--------------|-3----2----0----3----2----0-|
-|-------------------|-0----2----1--------------|-0----2----1----0----2----1-|
-|-------------------|-0----2----2--------------|-0----2----2----0----2----2-|
-|-------------------|-2----0----2--------------|-2----0----2----2----0----2-|
-|-------------------|-3---------0--------------|-3---------0----3---------0-|
                      Chorus, G1   W/Fill 1   2x                 W / Fill 2

-|------------------|---------------------|-3----0----0-------------|---------|
-|------------------|---------------------|-3----2----0-------------|---------|
-|-12--11--9--7--9--|-12--11--9--7-----9--|-0----2----1-------------|---------|
-|------------------|---------------9-----|-0----2----2-------------|---------|
-|------------------|---------------------|-2----0----2-------------|---------|
-|------------------|---------------------|-3---------0-------------|---------|
 Fill 1 (G3)         Fill 2 (G3)           G1          W/ Fill 1 2x

-|-3----0----0-----3----0----0--|-3----5------------------------------|-------|
-|-3----2----0-----3----2----0--|-3----5------------------------------|-------|
-|-0----2----1-----0----2----1--|-4----6------------------------------|-------|
-|-0----2----2-----0----2----2--|-5----7----9--9--9-9--9-9-9-9-9-9-9--|-------|
-|-2----0----2-----2----0----2--|-5----7----7--7--7-7--7-7-7-7-7-7-7--|-------|
-|-3---------0-----3---------0--|-3----5----0--0--0-0--0-0-0-0-0-0-0--|-------|
                   W/ Fill 2    Chorus, G2                          8x

-|---3----0----|--3----5----|------------------|------------------------------|
-|---3----2----|--3----5----|------------------|------------------------------|
-|---0----2----|--4----6----|-12--11--9--7-----|------------------------------|
-|---0----2----|--5----7----|---------------9--|------------------------------|
-|---2----0----|--5----7----|------------------|------------------------------|
-|---3---------|--3----5----|------------------|------------------------------|
 G1  W/ Fill 3  G2            Fill 3 (G3)

-|---------------------------------------------------|------------------------|
-|---------------------------------------------------|------------------------|
-|---------------------------------------------------|------------------------|
-|-9--9--9-9--9-9--9-9-9-9--9--9--9-9--9-9--9-9-9-9--|------------------------|
-|-7--7--7-7--7-7--7-7-7-7--6--6--6-6--6-6--6-6-6-6--|------------------------|
-|-0--0--0-0--0-0--0-0-0-0--0--0--0-0--0-0--0-0-0-0--|------------------------|
 Outro G1+G2

-|-----------------------------------------------------|----------------------|
-|-----------------------------------------------------|----------------------|
-|-9--9--9-9--9-9-9-9-9-9-9--9--9--9-9--9-9-9-9-9-9-9--|----------------------|
-|-7--7--7-7--7-7-7-7-7-7-7--9--9--9-9--9-9-9-9-9-9-9--|----------------------|
-|-0--0--0-0--0-0-0-0-0-0-0--0--0--0-0--0-0-0-0-0-0-0--|----------------------|
-|-----------------------------------------------------|----------------------|


-|---------------------------------------------------|------------------------|
-|---------------------------------------------------|------------------------|
-|---------------------------------------------------|------------------------|
-|-9--9--9-9--9-9--9-9-9-9--9--9--9-9--9-9--9-9-9-9--|------------------------|
-|-7--7--7-7--7-7--7-7-7-7--6--6--6-6--6-6--6-6-6-6--|------------------------|
-|-0--0--0-0--0-0--0-0-0-0--0--0--0-0--0-0--0-0-0-0--|------------------------|


-|-----------------------------------------------------|----------------------|
-|---------------------------9--9--9-9--9-9-9-9-9-9-9--|----------------------|
-|-9--9--9-9--9-9-9-9-9-9-9--9--9--9-9--9-9-9-9-9-9-9--|----------------------|
-|-7--7--7-7--7-7-7-7-7-7-7--9--9--9-9--9-9-9-9-9-9-9--|----------------------|
-|-0--0--0-0--0-0-0-0-0-0-0--0--0--0-0--0-0-0-0-0-0-0--|----------------------|
-|-----------------------------------------------------|----------------------|


-|---------------------------------------------------|------------------------|
-|---------------------------------------------------|------------------------|
-|---------------------------------------------------|------------------------|
-|-9--9--9-9--9-9--9-9-9-9--9--9--9-9--9-9--9-9-9-9--|------------------------|
-|-7--7--7-7--7-7--7-7-7-7--6--6--6-6--6-6--6-6-6-6--|------------------------|
-|-0--0--0-0--0-0--0-0-0-0--0--0--0-0--0-0--0-0-0-0--|------------------------|


-|-----------------------------------------------------|----------------------|
-|-----------------------------------------------------|----------------------|
-|-9--9--9-9--9-9-9-9-9-9-9--9--9--9-9--9-9-9-9-9-9-9--|----------------------|
-|-7--7--7-7--7-7-7-7-7-7-7--9--9--9-9--9-9-9-9-9-9-9--|----------------------|
-|-0--0--0-0--0-0-0-0-0-0-0--0--0--0-0--0-0-0-0-0-0-0--|----------------------|
-|-----------------------------------------------------|----------------------|
                                 Repeat last two lines till end, fade out...
Comments