Pearl Jam - In Hiding Chords & Tabs

 

In Hiding Chords & Tabs

Pearl Jam Chords & Tabs

Version: 1 Type: Bass Tab 0 ratings
1 star 2 stars 3 stars 4 stars 5 stars
comments

In Hiding Bass Tab

   
PEARL JAM "IN HIDING" -BASS TAB
--------------------
Tune normal  e a d g

Intro:
|-------------------------|
|--/7-5h7-7--7-5h7-----7--|
|------------------7-5----|
|-------------------------| 

|---------------|
|--7-5h7-7--7---|
|---------------|
|---------------|

verse:
|---7---7-|---------|
|---------|---5---5-|
|-5---5---|---------|
|---------|-3---3---|

|---------------|
|---------------|
|-5-5-3-5-5-5-0-|   x2
|---------------|

|---7---7-|---7---7-|
|---------|---------|
|-5---5---|-5---5---|
|---------|---------|

|---------------|-----------------|
|---------------|-----------------|
|-5-5-3-5-5-5-0-|-5-5-3-5-5-5-0-5-|   
|---------------|-----------------|

bridge:
|-------|
|-------|
|-5-(5)-|   x2
|-------|

|-----------------|
|---7-------------|
|-5---7---5-5---7-|  
|-------5-----5---|
[ Tab from: http://www.guitartabs.cc/tabs/p/pearl_jam/in_hiding_btab.html ]
|-------|
|-------|
|-5-(5)-|   x2
|-------|

Fill 1  (only before first chorus)
|-------------------|
|----12-14-12----12-|
|-12----------12----|
|-------------------|

Chorus
|------------------------------------------------------------------|
|*----------------------------------------------------------------*|
|*----------------------------------------------------------------*|
|--5-5-5-5-5-5-5-5-3-3-3-3-3-3-3-3-2-2-2-2-2-2-2-2-1-1-1-1-1-1-1-1-|  x4
4th time put 8 e's (0 on e string)

Im in hiding.....
|---------------|---------------|
|---------------|---------------|
|-5-5-3-5-5-5-0-|-3-3-1-3-3-3---|  
|---------------|-------------3-|

 h = hammeron
 p = pulloff
 ~ = vibrato
 / = slide up
 \ = slide down
(X)= hold note (let ring)

Tabbed by Mark Linwood

Hint suggesstions or comments to (Rlinwood@powerup.com.au)
I will reply to all emails

Comments