Pearl Jam - Im Going Hungry Chords & Tabs

 

Im Going Hungry Chords & Tabs

Pearl Jam Chords & Tabs

Version: 1 Type: Tab 0 ratings
1 star 2 stars 3 stars 4 stars 5 stars
comments

Im Going Hungry Tab

Pearl Jam - I'm going hungry


I always liked this song but i could never find any tabs of it (i dont know why),
so i just made one myself. It's an pretty easy song ,but it sounds good 

[0:00]
E |---------------------------------------------------------------------|
B |-------0---3-0---3-----0---3-0----3-----0---3-0---3-----0---3-0---3--|
G |o----0---0-----0-----0---0-----0------0---0-----0-----0---0-----0---o| 
D |o--0---------------2----------------0---------------0---------------o|
A |---------------------------------------------------------------------|
E |---------------------------------------------------------------------|

[2:25]                1/2
E |--------------------/\-------------|
B |-------------------/--\------------|
G |o-----------------/----\----------o| x4
D |o-3-5--3-5--4--(4)------(4)~~~~~--o|
A |--3-5--3-5-------------------------|
E |--1-3--1-3-------------------------|
[ Tab from: http://www.guitartabs.cc/tabs/p/pearl_jam/im_going_hungry_tab.html ]
[2:38]
E |---------------------------------------------------------------------|
B |-------0---3-0---3-----0---3-0----3-----0---3-0---3-----0---3-0---3--|
G |o----0---0-0---0-----0---0-0---0------0---0-0---0-----0---0-0---0---o| 
D |o--0-------0-------2-------2--------0-------0-------0-------0-------o|
A |---------------------------------------------------------------------|
E |---------------------------------------------------------------------|

[3:07]                1/2
E |--------------------/\-------------|
B |-------------------/--\------------|
G |o-----------------/----\----------o| x4
D |o-3-5--3-5--4--(4)------(4)~~~~~--o|
A |--3-5--3-5-------------------------|
E |--1-3--1-3-------------------------|

[3:20]
E |---------------------------------------------------------------------|
B |-------0---3-0---3-----0---3-0----3-----0---3-0---3-----0---3-0---3--|
G |o----0---0-----0-----0---0-----0------0---0-----0-----0---0-----0---o| 
D |o--0---------------2----------------0---------------0---------------o|
A |---------------------------------------------------------------------|
E |---------------------------------------------------------------------|

[3:47]                1/2
E |--------------------/\-------------|
B |-------------------/--\------------|
G |------------------/----\-----------| 
D |--3-5--3-5--4--(4)------(4)~~~~~---|
A |--3-5--3-5-------------------------|
E |--1-3--1-3-------------------------|
                            *hold til it fades out

please rate
Comments