Pearl Jam - I Am Mine Chords & Tabs

 

I Am Mine Chords & Tabs

Pearl Jam Chords & Tabs

Version: 6 Type: Tab 0 ratings
1 star 2 stars 3 stars 4 stars 5 stars
comments

I Am Mine Tab

"I AM MINE" SOLO by Pearl Jam

STANDARD TUNING

all the tabs for the solo that i found completely sucked, and this song
deserves to be tabbed correctly, so i tabbed thesefrom scratch. these
tabs are as accurate as they get online if not dead on. let me know how
you like them. if you think they need to be corrected, you can contact
me as well. my email address is chris_sagers@musician.net.

|-15-----|-------15-----------------------------------|
|----15--|-15-------15--------------------------------|
|--------|-14b16-(16)--b16----b16r14-12----12h14-14---|
|--------|------------------------------14------------|
|--------|--------------------------------------------|
|--------|--------------------------------------------|
[ Tab from: http://www.guitartabs.cc/tabs/p/pearl_jam/i_am_mine_tab_ver_6.html ]
|-----------------------------------------------------|
|-------------15--------------------------------------|
|----12-14s16----16p14-12---14-16p14p12----12h14-14---|
|-14------------------------------------14------------|
|-----------------------------------------------------|
|-----------------------------------------------------|

|-----15-15-------15-15-|-15------15-15-15---|
|--------15-15-15----15-|------15------------|
|-----------------------|--------------------|
|-----------------------|--------------------|
|-----------------------|--------------------|
|-----------------------|--------------------|

|-15---15-------------------------|---------------------------|
|-15---12-------------------------|-------------12------------|
|---------14--14b15r14---12----12-|----12-12s14------12s14-12-|
|---------------------------14----|-14------------------------|
|---------------------------------|---------------------------|
|---------------------------------|---------------------------|
Comments