Pearl Jam - Hard To Imagine Chords & Tabs

 

Hard To Imagine Chords & Tabs

Pearl Jam Chords & Tabs

Version: 2 Type: Tab 0 ratings
1 star 2 stars 3 stars 4 stars 5 stars
comments

Hard To Imagine Tab

   
Artist: Pearl Jam
Song: Hard To Imagine
Album: Lost Dogs

Intro and Verse:
e|-----------------------------------------------------------------|
b|0-2-2-2-2h3p2-3s5-3h5p3-2-3-2---2----2-2h3p2---------------------|
g|0-2---------------------------4----------------------------------|
d|0-2--------------------------------------------------------------|
a|--0--------------------------------------------------------------|
E|-----------------------------------------------------------------|

variation in verse right before the 'ohh' part:
e|----------------------------------------------------------------|
b|0-2-2-2-2h3p2-3s5--5s7s5------3-3-3-2h3p2-----------------------|
g|0-2-------------------------------------------------------------|
d|0-2-------------------------------------------------------------|
a|--0-------------------------------------------------------------|
E|----------------------------------------------------------------|
[ Tab from: http://www.guitartabs.cc/tabs/p/pearl_jam/hard_to_imagine_tab_ver_2.html ]
the 'ohh' part:
e|----0-------0-------0---------------------------------------------|
b|--3-------3-------3-----3---(3-3-3-2h3p2--------------------------|
g|------2-------1-------0-0---------------4)------------------------|
d|------------------------2-----------------------------------------|
a|0-----------------------3-----------------------------------------|
E|--------4-------3-------------------------------------------------|

repeat the ohh part 4 times but on the last time
 leave out the bracketed part

the 2nd verse is much the same as the 1st with guitar 2
adding a few fills

fill 1 at 1:19    fill 2 at 1:28        fill 3 at 1:36
e|------------------9----------------------7s9---------------------|
b|-2h3--------------10---------------------------------------------|
g|-2h4--------------9--------------------7--s9---------------------|
d|-----------------------------------------------------------------|
a|-----------------------------------------------------------------|
E|-----------------------------------------------------------------|

Repeat the 'ohh' part and then go into this:
A       G (or A/G, whichever u prefer)

                       A                     G
things were different then, all is different now.....

A/G
e|0
b|2
G|2
d|2
A|x
e|3

the end has a few variations and fills but they're easily made up
.
im pretty sure this is the most accurate tab of this song available
on the net to date but if u have any queries or comments email me at
branniganslove@yahoo.co.uk
Comments