Pearl Jam - Habbit Chords & Tabs

 

Habbit Chords & Tabs

Pearl Jam Chords & Tabs

Version: 1 Type: Bass Tab 0 ratings
1 star 2 stars 3 stars 4 stars 5 stars
comments

Habbit Bass Tab

    From: dreims@skynet.net.au (Torch)
    To: dwm3@po.cwru.edu
    Subject: Habbit Pearl Jam
    Date: Fri, 13 Dec
[ Tab from: http://www.guitartabs.cc/tabs/p/pearl_jam/habbit_btab.html ]
    
    well this is my shot at habbit
    
    here are the parts, you can work out where they go with a quick listen
    enjo
    
    g-----------------
    d-----------------
    a--7----7--6666666
    e----5------------
    
    
    
    g---3--3--777-3-33-777
    d---------------------
    a---------------------
    e---------------------
    
    
    g-----------------
    d-----------------
    a--7----7--6666666
    e----5------------
    
    
    
    g---3--3--777-3-33-777
    d---------------------
    a---------------------
    e---------------------
    
    
    g-----------------------------
    d-----------------------------
    a--8-88-----7--7777------------
    e--------77-----------------
    
    g----------------7-----6-----------
    d----------------------------------
    a--8------7--------------8------5---
    e---------------------------------
    
    hope this helps
    
Comments