Pearl Jam - Gods Dice Chords & Tabs

 

Gods Dice Chords & Tabs

Pearl Jam Chords & Tabs

Version: 1 Type: Bass Tab 0 ratings
1 star 2 stars 3 stars 4 stars 5 stars
comments

Gods Dice Bass Tab

   
" GOD¨S DICE "     BASS TAB
BY PEARL JAM (BINAURAL)	    TRANSCRIBED: JORDAN LEVI REYES 
TUNING: STANDARD E A D G

G--------------------------------------------------------
D--------------------------------------------------------
A------3-3------------/-12-12-12-12-12-12-12-12-12-12-12-
E--5-5-----3-3-7-7-5-5/----------------------------------

G----------|---------------------------------------------
D----------|---------------------------------------------
A-12-12-12-|12-10----3-3---------5-5-5-5-5-5-5-5-5-5-5-5-
E----------|------12-----3-3-7-7-------------------------

G----------|---------------------------------------------
D----------|---------------------------------------------
A--5-5-5-5-|--8-7-----------3-3--------------------------
E----------|------8-6-6-5-5-----3-3-7-7-5-5-5-5-5-5-5-5--
    CHORUS
G--------------------------------------------------------
D--7-5---------------------------------------------------
A------7-3-3-3-3-3-3-3-3-3-3-3-3-3-5---------------------
E------------------------------------5-5-5-5-5-5-5-5-5-5-

G-----------------------------------------|
D-----------------------------------------|
A------------3-3-3-3-3-3-3-3-3-3-3-3-3-5--|
E-5-5-5--1-1------------------------------|

G--------------------------------------------------------
D--------------------------------------------------------
A------3-3------------/12-12-12-12-12-12-12-12-12-12-12--
E--5-5-----3-3-7-7-5-5/----------------------------------

G----------|---------------------------------------------
D----------|---------------------------------------------
A-12-12-12-|-12-10----3-3--------------------------------
E----------|-------12-----3-3-7-7-5-5-5-5-5-5-5-5-5-5-5-5

G---------|-----------------------------------------------
D---------|-----------------------------------------------
A---------|-8-7-----------3-3------------/-12-12-12-12-12-
E-5-5-5-5-|-----8-6-6-5-5-----3-3-7-7-5-5/----------------
                                                         
G-------------|
D-------------|
A-12-12-12-12-|
E-------------|

    CHORUS II

G---------------------------------------------------------
D---------------------------------------------------------
A-12-10----3-3-3-3-3-3-3-3-3-3-3-3-3-5--------------------
E-------12-----------------------------5-5-5-5-5-5-5-5-5-5
[ Tab from: http://www.guitartabs.cc/tabs/p/pearl_jam/gods_dice_btab.html ]
G---------------------------------------------------------
D---------------------------------------------------------
A-----------3-3-3-3-3-3-3-3-3-3-3-3-3-5-------------------
E-5-5-5-1-1-----------------------------5-5-5-5-5-5-5-5-5-

G-----------------------------------------|
D-----------------------------------------|
A-------------3-3-3-3-3-3-3-3-3-3-3-3-3-5-|
E-5-5-5-5-1-1-----------------------------|

G---------------------------------------------------------
D---------------------------------------------------------
A-----3-3------------/12-12-12-12-12-12-12-12-12-12-12-12-
E-5-5-----3-3-7-7-5-5/------------------------------------

G----|----------------------------------------------------
D----|----------------------------------------------------
A-12-|-12-10----3-3---------5-5-5-5-5-5-5-5-5-5-5-5-5-----
E----|-------12-----3-3-7-7-------------------------------

G--------------------------------------------------------|
D--------------------------------------------------------|
A-8-7-----------3-3--------------------------------------|
E-----8-6-6-5-5-----3-3-7-7-5-5-5-5-5-5-5-5-5-5-5-5-5--O-|
   OUTRO 
G--------------|--------------|--------------------------|
D--------------|--------------|--------------------------|
A--------------|--------------|--------------------------|
E--O------2--3-|---O----2--3--|--O---2--3-3-3-3-3-3-3-3-3|

G--------------------------------------------------------
D--------------------------------------------------------
A-----3-3------------/12-12-12-12-12-12-12-12-12-12-12-12
E-5-5-----3-3-7-7-5-5/-----------------------------------

G----|------------------------------------------------|
D----|------------------------------------------------|
A-12-|-12-10----3-3---------5-5-5-5-5-5-5-5-5-5-5-5-5-|
E----|-------12-----3-3-7-7---------------------------|
                                                   
G|-------------------------------------------------|
D|-------------------------------------------------|
A|-8-7-----------3-3-------------------------------|
E|-----8-6-6-5-5-----3-3-7-7-7-7-7-7-7-7-7-7-7-7-7-|
                                                       

   CHORUS III                                           
G---------------------------------------------------------
D---------------------------------------------------------
A-----5-5-5-5-5-5-5-5-5-5-5-5-5-7-------------------------
E-3-3-----------------------------7-7-7-7-7-7-7-7-7-7-7-7-
                                               ninfomana..
G-----|
D-----|    REPEAT FOUR TIMES.........
A-----|
E-7---|

QUESTIONS,COMMENTS,BAD ADVICE TO bloodseed3@hotmail.com
     THE MASTER OF THE FOUR STRING¡¡¡¡¡¡ c.izcalli..

Comments