Pearl Jam - Footsteps Chords & Tabs

 

Footsteps Chords & Tabs

Pearl Jam Chords & Tabs

Version: 4 Type: Tab 0 ratings
1 star 2 stars 3 stars 4 stars 5 stars
comments

Footsteps Tab

   
Footsteps - Pearl Jam
-------------------------------------------------------------------------------
Tabbed by: Serge Fontaine
Email: scared73@msn.com

Tuning:  step down, or standard tuning.  (Half step is better)
Intro: (The intro is pretty basic, just need to listen to the song to get the right feel to it.)

e|----3----------------------------------------------------------------|
B|----3----------------------------------------------------------------|
G|----0----------------------------------------------------------------|
D|----0----------------------------------------------------------------|
A|----2----------------------------------------------------------------|
E|0h3---0h1------------------------------------------------------------|

Just improvise the strumming below.  It's pretty easy once getting use to.
sometimes people like to go from C to D.  Whatever flips your crank.
[ Tab from: http://www.guitartabs.cc/tabs/p/pearl_jam/footsteps_tab_ver_4.html ]
e|-0-0-0-0------0-0-----------------------------------------------------|
B|-1-3/5-3------0-1-----------------------------------------------------|
G|-0-0-0-0(3x)-0-0-----------------------------------------------------|
D|-2-2/4-4------2-2-----------------------------------------------------|
A|-3-3/5-5------2-3-----------------------------------------------------|
E|-x------------0-x-----------------------------------------------------|

The part below is another that needs improvising.

e|-0-0-3---------------------------------------------------------------|
B|-0-3-3-2-3-3---------------------------------------------------------|
G|-0-2-0-2-2-2---------------------------------------------------------|
D|-2-0-0-2-2-2---------------------------------------------------------|
A|-2-0-2-0-0-0---------------------------------------------------------|
E|-0-2-3---------------------------------------------------------------|

This is my first tab, but I've been playing this song for a longtime now.  When using a 
strumming pattern to it, can be a really easy song to play.  Everyone I know that plays
song plays it differently according to his or her style.  Well I hope you enjoy this one,
feel free to correct me if I'm wrong.  I'm not always right.


| /  slide up
| \  slide down
| h  hammer-on
| p  pull-off
| ~  vibrato
| +  harmonic
| x  Mute note
Comments