Pearl Jam - Footsteps Chords & Tabs

 

Footsteps Chords & Tabs

Pearl Jam Chords & Tabs

Version: 3 Type: Tab 0 ratings
1 star 2 stars 3 stars 4 stars 5 stars
comments

Footsteps Tab

Pearl Jam, " Footsteps ".
 Tabbed by Adam Hall, rapsux39@hotmail.com.
  
This is my first tab and kind of rusty, so bare with me.

----------------------
--------------------
-----0---------0----
--------------------
--------------------
-1h3---1---1h3---1--
it does this sevral times and when he sings the chorus he breaks into this...
[ Tab from: http://www.guitartabs.cc/tabs/p/pearl_jam/footsteps_tab_ver_3.html ]
--------------------------------------------------
-1-3-3-1-5-5-5-5-5-5-
-0-0-0-0-0-0-0-0-0-0-      x3
-2-2-2-2-4-4-4-4-4-4-
-3-3-3-3-5-5-5-5-5-5-
---------------------

then strum what is below once and reapeat whats above,
after you do that once go back to the begining.

-0------
-0------
-0------
-2------
-2------
-0------

HEY JOSH 
:: Ultimate Guitar Archive :: 
http://www.ultimate-guitar.com 

 
Comments