Pearl Jam - Faithfull Chords & Tabs

 

Faithfull Chords & Tabs

Pearl Jam Chords & Tabs

Version: 1 Type: Bass Tab 0 ratings
1 star 2 stars 3 stars 4 stars 5 stars
comments

Faithfull Bass Tab

Faithfull
Pearl Jam
Corrected by Nick Key (nkey@ionet.net)
First tabbed by Mark Linwood

Intro:

|-------------------4-5-4--------------|
|-5---5---5---5---5--------5---5-------|
|---5---5-------5------------5---5-3-5-|
|--------------------------------------|

First Verse:
                             5x
|-------------------4-5-4-| |-------------|
|-5---5---5---5---5-------| |-5---5---5---|
|---5---5-------5---------| |---5---5-----|
|-------------------------| |-------------|

Last Line of verse:
|----------------------------|
|-5-3h5-5\3\2----------------|
|--------------3h5-3---------|
|--------------------6-------|

Pre-chorus:
 3x
|------------------------------------------|
|------------------------------------------|
|------------------------------3h5p3-------|
|---3---6-6-3-6-6-6---3--3-3-3---------6---|
"and echoes"

fourth time
|------------------------------------------|
|------------------------------------------|
|------------------------------------------|
|---3---6-6-3-6-6-6---3--3-3-3-------------|

Chorus:
 4x
|----------------------------------------------------------------|
|----------------------------------------------------------------|
|-3---------------3---------------6----------------2-------------|
|---3-3-3-3-3-3-----3-3-3-3-3-3------3-3-3-3-3-3-----3-3-3-3-3-3-|
"We're faithful"


Fast Part:

|---------------------------------------------------|
|----------------------5-55-3-5--5-55-3-5-----------|
|-----3h5-3----3-3-3-3------------------------------|
|-6-6--------6--------------------------------------|
[ Tab from: http://www.guitartabs.cc/tabs/p/pearl_jam/faithfull_btab.html ]
 2x play notes in parentheses 2nd time
|----------------------------------------------------------|
|-----------------------------------5-55-3-5--5-55-3-5-----|
|-1h3-1----6-6-6---1h3-1----8-8-8--------------------------|
|-------3-(6-6-6)--------3-(8-8-8)-------------------------|


|-----------------------------------------------------------|
|---------------------------------5-55-3-5--5-555-----------|
|-1h3-1---6-6-6---1h3-1---8-8-8--------------------3h5p3----|
|-------3---------------3--------------------------------6--|

Pre-chorus:
 3x
|------------------------------------------|
|------------------------------------------|
|------------------------------3h5p3-------|
|---3---6-6-3-6-6-6---3--3-3-3---------6---|
"and echoes"

fourth time
|------------------------------------------|
|------------------------------------------|
|------------------------------------------|
|---3---6-6-3-6-6-6---3--3-3-3-------------|

Chorus:
 4x
|----------------------------------------------------------------|
|----------------------------------------------------------------|
|-3---------------3---------------6----------------2-------------|
|---3-3-3-3-3-3-----3-3-3-3-3-3------3-3-3-3-3-3-----3-3-3-3-3-3-|
"We're faithful"

Last verse:

|-------------------4-5-4----------------------------|
|-5---5---5---5---5--------5---5---5----5---5--------|
|---5---5-------5------------5---5--------5---5--3/2-|
|----------------------------------------------------|

|-------------------4-5-4----------------------------|
|-5---5---5---5---5--------5---5---5----5---5--------|
|---5---5-------5------------5---5--------5---5--3/5-|
|----------------------------------------------------|

Then:
 5x
|-------------|
|-5---5---5---|
|---5---5-----|
|-------------|

And end on G

Comments